Song name
# A B C D E F G H I J K L M N O P Q R S T U V W X Y Z

Explosions In The Sky - Memorial tab

I am currently tabbing this, but decided to post it b/c i might never finish:

ENJOY!

---------9---------------|
---10-12---9-10----------|
-9---------9-------------|
-------------------------| (x3)
-------------------------|
-------------------------|

------------12----------------|
---10-12----------------------|
-9-------9--------------------|
------------------------------|
------------------------------|
------------------------------|

------------------------------|
---10-12----------------------|
-9-------9--10----------------|
------------------------------|
-----------0---0--------------|
---------------0--------------|

------------12----------------|
---10-12----------------------|
-9-------9--------------------|
------------------------------|
------------------------------|
------------------------------|

---------9---------------|
---10-12---9-10----------|
-9---------9-9-----------|
-------------------------|
-------------------------|
-------------------------|

-----------------------------|
---------------/10s12s14s15--| -all x(8)
-/16(x8)-14(x8)--------------|
-----------------------------|
-----------------------------|
-----------------------------|
-----------------------------|

-12--------------------------|
---9-(x6)-----9(x6)----------|
---------11-11------11-11----|
-----------------------------|
-----------------------------|
-----------------------------|

--------------------------|
---8-(x6)-----------------|
---------11-11------------|
--------------------------|
--------------------------|
--------------------------|

---5-(x6)-----5(x6)---------|
----------------------------|
---------9-9------9-9-------|
----------------------------|
----------------------------|
----------------------------|

---10-(x6)-----8----------|
--------------------------|
--------------------------|
--------------------------|
--------------------------|
--------------------------|

---5-(x6)-----5(x6)---------|
----------------------------|
---------9-9------9-9-------|
----------------------------|
----------------------------|
----------------------------|

---6-(x6)-----------------|
--------------------------|
---------9-9--------------|
--------------------------|
--------------------------|
--------------------------|

----------------------------|
---9-(x6)-----9(x6)---------|
---------11-9------11-9-----|
----------------------------|
----------------------------|
----------------------------|
then back to the 5 part

-----------------------------|
---9-(x6)-----9(x6)----------|
---------11-11------11-11----|
-----------------------------|
-----------------------------|
-----------------------------|

-----------------------------|
---9--------alot-------------|
---9-------------------------|
-----------------------------|
-----------------------------|
-----------------------------|


-14(x6)-12-12-----------------|
------------------------------|
------------------------------|
------------------------------|  (x2)
------------------------------|
------------------------------|

-------------------------|
---------15(x6)-13-13-12-|
-------------------------|
-------------------------|
-------------------------|
-------------------------|

-------------------------|
-14(x6)12-14---14(x6)----|
-------------------------|
-------------------------|
-------------------------|
-------------------------|
Tap to rate this tab
# A B C D E F G H I J K L M N O P Q R S T U V W X Y Z