Song name
# A B C D E F G H I J K L M N O P Q R S T U V W X Y Z

Explosions In The Sky - Yasmin The Light tab

Hey guys,this is my first tab. I tried my best to tab it through the song and 
their live videos...so this is what i got out of it.
Please add corrections where i messed up.


You'll have to figure out the timing but this is the order.

( ) - Less audible notes played
/ \ - Slide
 ~  - Let ring
 h  - Hammer note
 !  - Strum as many times possible



Mark Smith  
Guitar 1 
               Verse 1
e|---------------------------------------------|
B|---------------------------------------------|
G|---------------------------------------------|    Repeat 3x
D|---------6~~---------------------------------|
A|---7--------------7------7------0~~----------|
E|-7-----7--------7------7------7--------------|

               Verse 2
e|----------------------------------------------|
B|--------------5~~-----------------------------|
G|-----------4----------------------------------|    Repeat 4x
D|--(6)--6--------------------------------------|
A|----------------------------------------------|
E|----------------------------------------------|

               Verse 3
e|--------------------------------------------------------------|
B|--9-9-9-9-9-9-10-9-(Repeat as many times)-----7-7-7-7-7-7-7~~-|
G|--------------------------------------------------------------|
D|--------------------------------------------------------------| 
A|--------------------------------------------------------------|
E|--------------------------------------------------------------|


Michael James  
Guitar 2
                Verse 1
e|-------------------------------------------------------------|
B|-------------------------------------------------------------|
G|-------------------------------------------------------------|
D|---------------13~---------13~-------------------------------| Repeat as
A|----11---14-11------14---11-----14---------------------------| many times
E|--0----0---------------0-----------0~~-----------------------|


                Verse 2
e|-------------------------------------------------------------|
B|-------------------------------------------------------------| 
G|-------------------13~--------11\--9-------------------------| 
D|----11---14---11---------11---------9~-----------------------| 
A|--0----0----0----0-----0----0--------------------------------| 
E|-------------------------------------------------------------| 


                Verse 3
e|----------------------------------------------------------------------|
B|----------------------------------------------------------------------|
G|---------------9~------------------------------------------------11~~-|
D|----------11----------------9---11~--------------9---8---------9------|
A|-----11-----------------9---------------9---11-------------9----------|
E|--/9----9----9----9\--7---7---7-------0---0----0---0-----0---0--------|



Munaf Rayani (the solo)
Guitar 3
               (Strum really fast on the "!" chords)
e|----------------------------------------------|
B|----------------------------------------------|
G|---13!--------9~~/-16!-------14~~\-13!--------|
D|---X-!--------X~~/-X-!-------X~~-\-X-!--------|
A|---11!--------7~~/-14!-------12~~\-11!--------|
E|---0-!--------0~~/-0-!-------0~~-\-0-!--------|




Well that's what i got....i havent tabbed anything after the solo yet.
Tap to rate this tab
# A B C D E F G H I J K L M N O P Q R S T U V W X Y Z