Song name
# A B C D E F G H I J K L M N O P Q R S T U V W X Y Z

Explosions In The Sky - So Long Lonesome tab

-----------------------------------------------------------------------------
			    So Long, Lonesome - Explosions in the Sky
-----------------------------------------------------------------------------
Tabbed by:Stubbgubben
Email:

Tuning: standard

My all time favourite EitS song. Thought i'd tab it for you. 


Intro:

e|--------------------------------|
B|--------------------------------|
G|--------------------------------|
D|----4-4-----4-4-----4-4-----4-4-|
A|-2~------2~---------------------|
E|-----------------4~------4~-----| x4

Next bit:

e|--------------------------------|
B|-6-6--6-/7--7-7--7-/9-----------|
G|--------------------------------|
D|--------------------------------|
A|--------------------------------|
E|--------------------------------| x2


e|-6-6--6-\4--9-9--9-\7--7-7--7-\6|
B|--------------------------------|
G|--------------------------------|
D|--------------------------------|
A|--------------------------------|
E|--------------------------------| x2

e|--------------------------------|
B|-7-7--7-/9--2-2--2-/4-----------|
G|--------------------------------|
D|--------------------------------|
A|--------------------------------|
E|--------------------------------| x2


Play the intro twice again and then the next bit again into the climax where this bit is played:

e|--------------------------------|
B|--------------------------------|
G|--------------------------------|
D|-11-11~--11-11~--11-11~--11-11~-|
A|--------------------------------|
E|--------------------------------| until the end

Listen to the song to get a hang of it! Great tune, easy to play. Enjoy!

/Stubbgubben
Tap to rate this tab
 
# A B C D E F G H I J K L M N O P Q R S T U V W X Y Z