Song name
# A B C D E F G H I J K L M N O P Q R S T U V W X Y Z

Explosions In The Sky - Magic Hours tab

Magic Hours
Explosions In The Sky
How Strange, Innocence


_________________________________________________________

e|------------------------------------------------------|
B|---7-10---7-10----7-10---7-10---7-10----7-10---7-10---|
G|---8-------8------8------8-------8------8------8------|
D|------------------------------------------------------|
A|------------------------------------------------------|
E|------------------------------------------------------|
                                                                Chord  
                                                               ________
e|------------------------------------------------------|
B|---7------7------7------7-----7-----7------7----------|
G|---8------8------8------8-----8-----8------8----------|
D|---10-----10-----10-----10----10----10-----10---------|
A|------------------------------------------------------|
E|------------------------------------------------------|
_________________________________________________________

e|------------------------------------------------------|
B|-------8------8------8-------8--------8---------------|
G|-----11-----11-----11------11--------11---------------|
D|--------------------------------------0---------------|       Not chord
A|------------------------------------------------------|      ___________
E|------------------------------------------------------|
_________________________________________________________

e|------------------------------------------------------|
B|---7-10---7-10----7-10---7-10---7-10----7-10---7-10---|
G|---8-------8------8------8-------8------8------8------|
D|------------------------------------------------------|
A|------------------------------------------------------|
E|------------------------------------------------------|
                                                                Chord  
                                                               ________
e|------------------------------------------------------|
B|---7------7------7------7-----7-----7------7----------|
G|---8------8------8------8-----8-----8------8----------|
D|---10-----10-----10-----10----10----10-----10---------|
A|------------------------------------------------------|
E|------------------------------------------------------|
_________________________________________________________

e|------------------------------------------------------|
B|-------10------10-----10-----10------10---------------|
G|-----11-----11-----11------11--------11---------------|
D|--------------------------------------0---------------|       Not chord
A|------------------------------------------------------|      ___________
E|------------------------------------------------------|
_________________________________________________________

e|------------------------------------------------------|
B|---7-10---7-10----7-10---7-10---7-10----7-10---7-10---|
G|---8-------8------8------8-------8------8------8------|
D|------------------------------------------------------|
A|------------------------------------------------------|
E|------------------------------------------------------|
                                                                Chord  
                                                               ________
e|------------------------------------------------------|
B|---7------7------7------7-----7-----7------7----------|
G|---8------8------8------8-----8-----8------8----------|
D|---10-----10-----10-----10----10----10-----10---------|
A|------------------------------------------------------|
E|------------------------------------------------------|

________________________________________________________

e|------------------------------------------------------|
B|-------8------8----8------8---------------------------|
G|-----11----11----11------11---------------------------|     
D|--------------------------0---------------------------|       Not chord
A|------------------------------------------------------|      ___________
E|------------------------------------------------------|
_________________________________________________________

e|------------------------------------------------------|
B|---7-10---7-10----7-10---7-10---7-10----7-10---7-10---|
G|---8-------8------8------8-------8------8------8------|
D|------------------------------------------------------|
A|------------------------------------------------------|
E|------------------------------------------------------|
                                                                Chord  
                                                               ________
e|------------------------------------------------------|
B|---7------7------7------7-----7-----7------7----------|
G|---8------8------8------8-----8-----8------8----------|
D|---10-----10-----10-----10----10----10-----10---------|
A|------------------------------------------------------|
E|------------------------------------------------------|
_________________________________________________________
                                                                                        
                                                             
e|------------------------------------------------------|
B|-------10------10-----10-----10------10---------------|
G|-----11-----11-----11------11--------11---------------|
D|--------------------------------------0---------------|       Not chord
A|------------------------------------------------------|      ___________
E|------------------------------------------------------|

_________________________________________________________

e|------------------------------------------------------|
B|---7-10---7-10----7-10---7-10---7-10----7-10---7-10---|
G|---8-------8------8------8-------8------8------8------|
D|------------------------------------------------------|
A|------------------------------------------------------|
E|------------------------------------------------------|
                                                                Chord  
                                                               ________
e|------------------------------------------------------|
B|---7------7------7------7-----7-----7------7----------|
G|---8------8------8------8-----8-----8------8----------|
D|---10-----10-----10-----10----10----10-----10---------|
A|------------------------------------------------------|
E|------------------------------------------------------|
_________________________________________________________
 
This could be wrong. 0:33seconds
e|------------------------------------------------------|
B|-------8-----8-----8----8-----------------------------|
G|----11----11----11------11----------------------------|
D|------------------------0-----------------------------|
A|------------------------------------------------------|
E|------------------------------------------------------|

_________________________________________________________

e|------------------------------------------------------|
B|---7-10---7-10----7-10---7-10---7-10----7-10---7-10---|
G|---8-------8------8------8-------8------8------8------|
D|------------------------------------------------------|
A|------------------------------------------------------|
E|------------------------------------------------------|
                                                                Chord  
                                                               ________
e|------------------------------------------------------|
B|---7------7------7------7-----7-----7------7----------|
G|---8------8------8------8-----8-----8------8----------|
D|---10-----10-----10-----10----10----10-----10---------|
A|------------------------------------------------------|
E|------------------------------------------------------|
_________________________________________________________

e|------------------------------------------------------|
B|-------8------8------8-------8------------------------|
G|-----11---11----11----11-----10-----------------------|     
D|-----------------------------0------------------------|       Not chord
A|------------------------------------------------------|      ___________
E|------------------------------------------------------|

_________________________________________________________

e|------------------------------------------------------|
B|---7-10---7-10----7-10---7-10---7-10----7-10---7-10---|
G|---8-------8------8------8-------8------8------8------|
D|------------------------------------------------------|
A|------------------------------------------------------|
E|------------------------------------------------------|
                                                                Chord  
                                                               ________
e|------------------------------------------------------|
B|---7------7------7------7-----7-----7------7----------|
G|---8------8------8------8-----8-----8------8----------|
D|---10-----10-----10-----10----10----10-----10---------|
A|------------------------------------------------------|
E|------------------------------------------------------|
_________________________________________________________

e|------------------------------------------------------|
B|-------10----10------10-----10------------------------|
G|-----11----11----11---------11------------------------|
D|-----------------------------0------------------------|     Not chord
A|------------------------------------------------------|    __________
E|------------------------------------------------------|

_________________________________________________________

e|------------------------------------------------------|
B|---7-10---7-10----7-10---7-10---7-10----7-10---7-10---|
G|---8-------8------8------8-------8------8------8------|
D|------------------------------------------------------|
A|------------------------------------------------------|
E|------------------------------------------------------|
                                                                Chord  
                                                               ________
e|------------------------------------------------------|
B|---7------7------7------7-----7-----7------7----------|
G|---8------8------8------8-----8-----8------8----------|
D|---10-----10-----10-----10----10----10-----10---------|
A|------------------------------------------------------|
E|------------------------------------------------------|
_________________________________________________________

1:01seconds
e|------------------------------------------------------|
B|-------8-----8-----8-----10---------------------------|
G|-----11----11----11------11---------------------------|
D|--------------------------0---------------------------|     Not chord
A|------------------------------------------------------|    __________
E|------------------------------------------------------|

________________________________________________________



e|------------------------------------------------------|
B|---7-10---7-10----7-10---7-10---7-10----7-10---7-10---|
G|---8-------8------8------8-------8------8------8------|
D|------------------------------------------------------|
A|------------------------------------------------------|
E|------------------------------------------------------|
                                                                Chord  
                                                               ________
e|------------------------------------------------------|
B|---7------7------7------7-----7-----7------7----------|
G|---8------8------8------8-----8-----8------8----------|
D|---10-----10-----10-----10----10----10-----10---------|
A|------------------------------------------------------|
E|------------------------------------------------------|
_________________________________________________________


Thats part of the song ill tab the rest later when can and learn the rest.
Tap to rate this tab
 
# A B C D E F G H I J K L M N O P Q R S T U V W X Y Z