Song name
# A B C D E F G H I J K L M N O P Q R S T U V W X Y Z

Explosions In The Sky - Your Hand In Mine tab

Explosions in the Sky  Your Hand in Mine.
Heres my email if you think it needs changes : supersonic113@gmail.com
Key: E Major. (E F# G# A B C# D# E)
Tuning: Standard for all guitars.
The song is in 3s, but played in 4s.


---------------------------------------Michael--------------------------------------------

    0:07  1:12
E|------7-----|-----------|----------|------------|
B|------------|-----9-----|----7-----|------------|
G|----------9-|---------9-|--------9-|-----8-9/8--|
D|------------|-----------|----------|------------|
A|------------|-----------|-9--------|-0----------|
E|---9--------|--0--------|----------|------------|

  1:13  1:50
E|----------|---------|---------|---------|
B|----------|---------|---------|---------|
G|----------|---------|---------|---------|
D|----------|---------|---------|---------|
E|--7~7-7~7-|-6~6-6~6-|-2~2-2~2-|-7~7-7~7-|
A|--9~9-9~9-|-7~7-7~7-|-0~0-0~0-|-5~5-5~5-|

   1:54  2:20
E|------7-----|-----------|----------|------------|
B|------------|-----9-----|----7-----|------------|
G|----------9-|---------9-|--------9-|-----8-9/8--|
D|------------|-----------|----------|------------|
A|------------|-----------|-9--------|-0----------|
E|---9--------|--0--------|----------|------------|

   2:20  2:25
E|-----------|----------|----------|----------|
B|-----------|----------|----------|----------|
G|-----8--9--|----8--9--|----8--9--|----8--9--|
D|-----------|----------|----------|----------|
E|-----------|----------|----------|----------|
A|--7--------|-7--------|-7--------|-7--------|

  2:26 -
E|--------------|-------------|-------------|-------------|
B|------9---9---|-----7---7---|-----7---7---|-----7---7---|
G|----9---9---9-|---9---9---9-|---8---8---8-|---8---8---8-|
D|--------------|-------------|-------------|-------------|
A|--------------|-------------|-------------|-------------|
E|--9-----------|-0-----------|-7-----------|-7-----------|

  - 2:38
E|---------------|--------------|-------------|--------------|
B|-------5-------|------4---4---|-------------|--------------|
G|-----6---8-6/4-|----4---4---4-|---9-8---8---|----9-8---8h9-|
D|---------------|--------------|-------9---9-|--------9-----|
E|---------------|--------------|-------------|--------------|
A|--0------------|-0------------|-7-----------|-7------------|

   2:39 -
E|--------------|-------------|-------------|-------------|
B|------9---9---|-----7---7---|-----7---7---|-----7---7---|
G|----9---9---9-|---9---9---9-|---8---8---8-|---8---8---8-|
D|--------------|-------------|-------------|-------------|
A|--------------|-------------|-------------|-------------|
E|--9-----------|-0-----------|-7-----------|-7-----------|

   - 5:01
E|---------------|--------------|-------------|--------------|
B|-------5-------|------4---4---|-------------|--------------|
G|-----6---8-6/4-|----4---4---4-|---9-8---8h9-|----9-8---8h9-|
D|---------------|--------------|-------9-----|--------9-----|
E|---------------|--------------|-------------|--------------|
A|--0------------|-0------------|-7-----------|-7------------|

  5:03 -
E|-------------------------------------------------|
B|-------------------------------------------------|
G|----999----9----999----9---999--9--999-----------|
D|------------------------------6---6--------------|
E|--------7-----------9----------------------------|
A|--9----------7-----------0-----------------------|

  - 6:17
E|-------------------------------------------------|
B|-------------------------------------------------|
G|----999----9----999----9---999---9---999---------|
D|-------------------------------------------------|
E|--------7-----------9---------7----7-------------|
A|--9----------7-----------0-----------------------|

   6:18  6:29  (I don't know the exact strumming pattern; improvise.)
E|---------------------------------| You can play this differently, just
B|---------------------------------| Use the chords that I labeled.
G|---------------------------------|
D|--A------E-------A--------E------|
E|--5~-----2~------5~-------2~-----|
A|--7~-----0~------7~-------0~-----|

  6:30 -
E|-------------------------------------------------|
B|-------------------------------------------------|
G|----999----9----999----9---999--9--999-----------|
D|------------------------------6---6--------------|
E|--------7-----------9----------------------------|
A|--9----------7-----------0-----------------------|

  - 7:18
E|-------------------------------------------------|
B|-------------------------------------------------|
G|----999----9----999----9---999---9---999---------|
D|-------------------------------------------------|
E|--------7-----------9---------7----7-------------|
A|--9----------7-----------0-----------------------|

   7:19  7:42
E|---------------------------------| You can play this differently too,
B|---------------------------------| just use the chords that I labeled.
G|---------------------------------|
D|--A------E-------A--------E------|
E|--5~-----2~------5~-------2~-----|
A|--7~-----0~------7~-------0~-----|


--------------------------------------Munaf-----------------------------------------------


   0:20  1:06 (just play this whole thing two times.)
E|---------------------------|--------------------------|
B|--12-10-9-10-7/10-9-7-4/9--|--14-12-10-9/12~9-7/2/5~--|
G|---------------------------|--------------------------|
D|---------------------------|--------------------------|
E|---------------------------|--------------------------|
A|---------------------------|--------------------------|

  1:12  1:51                                                                            
              (after the third time, end on this V)
E|---------------------------------------------------------|-----------------|
B|--5~5/7~7/9~9/7~7/5~5/7~7-12-10-9h10-9~----9-9-9-9h10-9--|-9-9-9-9-9h10-9--|
G|---------------------------------------------------------|-----------------|
D|---------------------------------------------------------|-----------------|
E|---------------------------------------------------------|-----------------|
A|---------------------------------------------------------|-----------------|

  1:53  2:14
E|---------------------------|--------------------------|
B|--12-10-9-10-7/10-9-7-4/9--|--14-12-10-9/12~9-7/2/5~--|
G|---------------------------|--------------------------|
D|---------------------------|--------------------------|
E|---------------------------|--------------------------|
A|---------------------------|--------------------------|

Play this after the two bars above, make sure you sustain the 5~ long enough to play the 4~
E|----------------------------------------|
B|-4~-------------------------------------|
G|-----4~--/2~--4~--2~--------------------|
D|----------------------2~--/4~--6~-------|
A|----------------------------------------|
E|----------------------------------------|

  3:03  3:50
E|----------------------------------------------------------|
B|----------------------------------------------------------|
G|----------------------------------------------------------|
D|----------------------------------------------------------|
A|--10-10-10-10-10-10/9-9-9-9-7-6/4-4-4-2-2-2/9-9-9-9-7~~---|
E|----------------------------------------------------------|
  3:51  4:38
E|---------------------------------------------------------------|
B|---------------------------------------------------------------|
G|---------------------------------------------------------------|
D|--6-6-6-6-7-9-6-6-6-6-7-9/11-11-11-11-11-11-9-9-9-9-9-9-8(x12)-|
A|---------------------------------------------------------------|
E|---------------------------------------------------------------|

   (Play near the end of every other bar, you can hear it slightly in the background. If 
you look at mark's playing, it's played along with the tremolo picking around this 
time, and done along with the last 14T that is shown on the bar. This is confusing 
to explain, just listen closely to the song and you'll figure it out.)
E|-------------------------------------------------|
B|-------------------------------------------------|
G|--13T-11T-9~-------------------------------------|
D|-------------------------------------------------|
A|-------------------------------------------------|
E|-------------------------------------------------|

  5:27 -
E|---------------------------------------------------|
B|---------------------------------------------------|
G|-9-8-46-4\1~2~1~-1-2-4/9-11-13~-------------------|
D|---------------------------------------------------|
A|---------------------------------------------------|
E|---------------------------------------------------|

   - 6:02
E|---------------------|-----------------------------------|
B|---------------------|-----------------------------------|
G|--14-13/9~-14-13/9~--|---6-9-8-11-9~/13~-14-13-14-13/9~--|
D|---------------------|-----------------------------------|
A|---------------------|-----------------------------------|
E|---------------------|-----------------------------------|
(Light tremolo picking, listen to the song to here it. Its around the very end of
the bar when mark plays 12-12-12-10-9-9-10-12-|, it's just about at that spot.)
E|---------------------------------------------|
B|---------------------------------------------|
G|---------------------------------------------|
D|---14T-16T-14T-------------------------------|
A|---------------------------------------------|
E|---------------------------------------------|

  6:17  6:29 (just play this entire thing one time)
E|----------------------------------------|-------------|
B|----------------------------------------|-------------|
G|--6-8-9-11/16-16-16-16-16-14-14-13-13---|--6-9-8/4~~--|
D|----------------------------------------|-------------|
A|----------------------------------------|-------------|
E|----------------------------------------|-------------|


  6:30 -
E|---------------------------------------------------|
B|---------------------------------------------------|
G|-9-8-46-4\1~2~1~-1-2-4/9-11-13~-------------------|
D|---------------------------------------------------|
A|---------------------------------------------------|
E|---------------------------------------------------|

   - 7:03
E|---------------------|-----------------------------------|
B|---------------------|-----------------------------------|
G|--14-13/9~-14-13/9~--|---6-9-8-11-9~/13~-14-13-14-13/9~--|
D|---------------------|-----------------------------------|
A|---------------------|-----------------------------------|
E|---------------------|-----------------------------------|


E|--------------------|
B|--------------------|
G|--------------------|
D|---14T-16T-14T------|
A|--------------------|
E|--------------------|

  7:18  7:42 (This time, play the entire thing twice. And then end on|)
E|----------------------------------------|-------------|-------|    ---|
B|----------------------------------------|-------------|-------|    ---|
G|--6-8-9-11/16-16-16-16-16-14-14-13-13---|--6-9-8/4~~--|---9~--| <-----|
D|----------------------------------------|-------------|---------------|
A|----------------------------------------|-------------|---------------|
E|----------------------------------------|-------------|---------------|


------------------------------------------Mark--------------------------------------------

  INTRO (with delay)
E|------------------11~---12~---14~------------------|
B|---------------------------------------------------|
G|---------------------------------------------------|
D|---------------------------------------------------|
A|---------------------------------------------------|
E|---------------------------------------------------|

   0:40  0:46
E|---11~--12~--14~--14~------------------------------|
B|---------------------------------------------------|
G|---------------------------------------------------|
D|---------------------------------------------------|
A|---------------------------------------------------|
E|---------------------------------------------------|

   0:55  0:59
E|---------------------------------------------------|
B|--12-14-14-16-12-----------------------------------|
G|---------------------------------------------------|
D|---------------------------------------------------|
A|---------------------------------------------------|
E|---------------------------------------------------|

  1:06  1:12
E|---------------------------------------------------|
B|--12-10-12~--9-10/5~-------------------------------|
G|---------------------------------------------------|
D|---------------------------------------------------|
A|---------------------------------------------------|
E|---------------------------------------------------|

                                                 x3
E|----------------16-14~-16-14-12~-12-12-12--------|--12-12-12h14-12~---|
B|-12-12-12-12-12----------------------------------|--------------------|
G|------------------------------------------------|---------------------|
D|-------------------------------------------------|--------------------|
A|-------------------------------------------------|--------------------|
E|-------------------------------------------------|--------------------|

  (play once off beat (you'll hear it in the song) then once on beat)
E|---11~-12~-14~-14~---------------------------------|
B|---------------------------------------------------|
G|---------------------------------------------------|
D|---------------------------------------------------|
A|---------------------------------------------------|
E|---------------------------------------------------|


  2:38 -
E|---------------------------------------------------|
B|--9-9/12-5-7~--------------------------------------|
G|--------------4-6-9~-11~---------------------------|
D|---------------------------------------------------|
A|---------------------------------------------------|
E|---------------------------------------------------|

   - 3:27
E|---------------------------------------------------|
B|--9-9/12-5-7~--------------------------------------|
G|--------------6-4-9~-11~---------------------------|
D|---------------------------------------------------|
A|---------------------------------------------------|
E|---------------------------------------------------|

  3:27 - 4:14
E|------------------------------9-9-9-9-9-9-12-12-11-11-11-11-7-7-7-7-7-7----|
B|-14/9-9-9-10-12-9-9-9-9-10-12----------------------------------------------|
G|---------------------------------------------------------------------------|
D|---------------------------------------------------------------------------|
A|---------------------------------------------------------------------------|
E|---------------------------------------------------------------------------|

  4:15 -  (quiet tremolo picking) (just play the whole thing once)
E|--16T-19T-12T-14T-9T-7T-12T-14T-|
B|--------------------------------|
G|--------------------------------|
D|--------------------------------|
A|--------------------------------|
E|--------------------------------|

  - 4:36
E|--16T-19T-12T-14T-7T-9T-12T-14T-|
B|--------------------------------|
G|--------------------------------|
D|--------------------------------|
A|--------------------------------|
E|--------------------------------|

   4:37 (Louder tremolo picking) EXPLOSION. (THIS IS SLIGHTLY DIFFERENT)
E|--16T-19T-12T-14T-12T-9T-7T-12T-14T-|
B|------------------------------------|
G|------------------------------------|
D|------------------------------------|
A|------------------------------------|
E|------------------------------------|

  - 5:02                     (and end on V)
E|--16T-19T-12T-14T-12T-7T-9T-12T-14T-|--12~----|
B|------------------------------------|---------|
G|------------------------------------|---------|
D|------------------------------------|---------|
A|------------------------------------|---------|
E|------------------------------------|---------|

5:19  5:50(Play the 12~ note delicately, its played lightly in the background, improvise)
E|--12~--|--16~14~16~14~12~----16~14~16~14~12~---|
B|-------|---------------------------------------|
G|-------|---------------------------------------|
D|-------|---------------------------------------|
A|-------|---------------------------------------|
E|-------|---------------------------------------|

   5:60  6:02
E|--9-7-9--------------------------------------------|
B|--------10-9~----10-9-10-9/5-----------------------|
G|---------------------------------------------------|
D|---------------------------------------------------|
A|---------------------------------------------------|
E|---------------------------------------------------|

  6:05  6:16 (Just play the part below two times 'til the mini explosion.)
E|-------------------------------------------------------------|
B|--12-12-12-10-9~-12-12-12-10-9~-12-12-12-10-9~--9-10-12------|
G|-------------------------------------------------------------|
D|-------------------------------------------------------------|
A|-------------------------------------------------------------|
E|-------------------------------------------------------------|

   6:17  6:29 (Play the part below twice, until the mini explosion ends.)
E|---------------------------------------------------|
B|-12-(x20)-10-10-9-9~-------------------------------|
G|---------------------------------------------------|
D|---------------------------------------------------|
A|---------------------------------------------------|
E|---------------------------------------------------|

   6:41  6:51 (Play the part below twice. I couldn't count the number of twelves. Improvise.)
E|--------------------------------------------------------------|
B|--12-12-12-12-12-12-(however many times it's played)----------|
G|----------------------------------------------------9-9~------|
D|--------------------------------------------------------------|
A|--------------------------------------------------------------|
E|--------------------------------------------------------------|

   6:53  7:04 (the notes in parenthesis means i don't know how many times it's played, 
but it's easy to figure out how to play it. Improvise.)
E|-----------------------|----------------------------|
B|------12-12-12-12------|----------------------------|
G|--(9)-------------9-9~-|-(14)-13-13~----------------|
D|-----------------------|----------------------------|
A|-----------------------|----------------------------|
E|-----------------------|----------------------------|

  7:06  7:18 (Build-up.)
E|-------------------------------------------------------------|
B|--12-12-12-10-9~-12-12-12-10-9~-12-12-12-10-9~--9-10-12------|
G|-------------------------------------------------------------|
D|-------------------------------------------------------------|
A|-------------------------------------------------------------|
E|-------------------------------------------------------------|

  7:19  7:43 (The second mini explosion, but this one is twice as long. So you have to 
play this part below four times.)
E|---------------------------------------------------|
B|-12-(x20)-10-10-9-9~-------------------------------|
G|---------------------------------------------------|
D|---------------------------------------------------|
A|---------------------------------------------------|
E|---------------------------------------------------|

   End the entire song with (with delay) (play the twelve on the high e string gingerly, 
you can hear it slightly at the end of the song. And that's how you end it.)
E|-------------------------------12-12-12-12-12-12-12-12-12-12-----|
B|-----------------------12~---------------------------------------|
G|-----------------------------------------------------------------|
D|-----------------------------------------------------------------|
A|-----------------------------------------------------------------|
E|-----------------------------------------------------------------|

Key
H: Hammer on.
P: Pull-off.
/: Slide.
(x ): play previous note times number in parenthesis.
~: Hold note.
T: Tremolo picking.
Tap to rate this tab
# A B C D E F G H I J K L M N O P Q R S T U V W X Y Z