Guitaretab - guitar tabs
Song name
# A B C D E F G H I J K L M N O P Q R S T U V W X Y Z

Explosions In The Sky - Day Six tab

this is only the rhythm part for the second section of the song,
comes in just before 2:00 i think. just did this quickly, improvise
on it otherwise it gets boring playing it over, couldnt be bothered
with the other guitar parts. let the the bass notes ring through.
anthony_kaitse@hotmail.com 

intro
e|-----------------------------------------------------------|
B|-----------------------------------------------------------|
G|---14-14-14-14-14-----14-14-14-14-14----9-9-9-9-9----------|
D|---11-11-11-11-11-----11-11-11-11-11----0-0-0-0-0----------|
A|-0---------------------------------------------------------|
E|-------------------14-----------------9--------------------|

[ Tab from: http://www.guitaretab.com/e/explosions-in-the-sky/81171.html ]
e|-----------------------------------------------------------|
B|-----------------------------------------------------------|
G|-----13-13-13-13-13-----9-9-9-9-9----9-9-9-9-9-------------|
D|------0--0--0--0--0-----0-0-0-0-0----0-0-0-0-0-------------|
A|-----------------------------------0-----------------------|
E|-/12-----------------10------------------------------------|


e|-----------------------------------------------------------|
B|-----------------------------------------------------------|
G|---7-7-7-7-7-----9-9-9-9-9---------------------------------|
D|---0-0-0-0-0-----0-0-0-0-0---------------------------------|
A|-----------------------------------------------------------|
E|-7------------/9-------------------------------------------|




Related for Day Six tab
Advertisement will be closed in 10 seconds