Guitaretab - guitar tabs
Song name
# A B C D E F G H I J K L M N O P Q R S T U V W X Y Z

Explosions In The Sky - Only Moment We Were Alone tab

-----------------------------------------------------------------------
THE ONLY MOMENT WE WERE ALONE - Explosions in the Sky
-----------------------------------------------------------------------
Tabbed by: Graham
Email: santeria17@hotmail.com

Tuning: Standard

This is in no way complete/accurate, but just an attempt to lay out some of the cooler 
in the song. Iíll add more as I work on it, but hereís what I have so far:

Guitar 1: 0:05-1:40, 1:53-3:05
e|----------------------------------------------------------------------|
B|----------------------------------------------------------------------|
G|----------------------------------------------------------------------|
D|----------------------------------------------------------------------|
A|3-3-3-3-3-3-3-3-3-3-3-3-3-3-3-3-3-3-3-3-3-3-3-3-3-3-3-3-3-3-3-3-3-3---|
E|----------------------------------------------------------------------|

Guitar 2: 0:39-1:28, 2:04-2:55,
e|--15--15--15--15--15--15--15--15--15--8--15--8-----------------------|
B|17--17--17--17--17--17--17--17--17-----------------------------------|
G|---------------------------------------------------------------------|
D|---------------------------------------------------------------------|
A|---------------------------------------------------------------------|
E|---------------------------------------------------------------------|

e|-------------------------------------15--15--8--15--8----------------|
B|-17-17-17-17-17-17-17-17-17-17-17-17--17--17-------------------------|
G|---------------------------------------------------------------------|
D|---------------------------------------------------------------------|
A|---------------------------------------------------------------------|
E|---------------------------------------------------------------------|
[ Tab from: http://www.guitaretab.com/e/explosions-in-the-sky/84722.html ]
Guitar 3: 3:05-4:27
e|---------------------------------------------------------------------|
B|---------------------------------------------------------------------|
G|-9--7--5--7--5---9--7--5---------------------------------------------|
D|---------------------------------------------------------------------|
A|---------------------------------------------------------------------|
E|---------------------------------------------------------------------|

Guitar 2: 5:41-5:53, 6:18-6 :30
e|---12--12--12--15------12--12--12--8---------------------------------|
B|-13--13--13----------13--13--13--------------------------------------|
G|---------------------------------------------------------------------|
D|---------------------------------------------------------------------|
A|---------------------------------------------------------------------|
E|---------------------------------------------------------------------|

Guitar 2: 6:31-6:56, 7:43-8:30, 9:27-10:10------------------------------|
e|---12--13--15----12--13--15----12--13--17----12--13--17---------------|
B|-13------------13------------13------------13-------------------------|
G|----------------------------------------------------------------------|
D|----------------------------------------------------------------------|
A|----------------------------------------------------------------------|
E|----------------------------------------------------------------------|
e|---12--13--15----12--13--15----12--13--17----12--13--20---------------|
B|-13------------13------------13------------13-------------------------|
G|----------------------------------------------------------------------|
D|----------------------------------------------------------------------|
A|----------------------------------------------------------------------|
E|----------------------------------------------------------------------|
Related for Only Moment We Were Alone tab