Guitaretab - guitar tabs
Song name
# A B C D E F G H I J K L M N O P Q R S T U V W X Y Z

Explosions In The Sky - From West Texas tab

***************
From West Texas
***************
By Explosions in the Sky

From Friday Night Lights soundtrack
Tabbed by Adam B.
Email: Atwbthe3rd@yahoo.com


This is a pretty cool song, relaxing, yet still interesting musically.
 Itís in 4/4.


Guitar 1: Drop D
(Just play those two notes in each measure alternating between them in time with the 
I didnít actually tab the pattern he plays but just listen to it. He plays it with lots of echo)

e||----11---11--11---11---11-11---11-|---11----11--11--11---11-------|
B||----------------------------------|-------------------------------|
G||.---------------------------------|-------------------------------|
D||.---------------------------------|-------------------------------|
A||----------------------------------|-------------------------------|
D||-9--------9----9----9-------9-----|9-9--------9---9---9---9-------|

[ Tab from: http://www.guitaretab.com/e/explosions-in-the-sky/92536.html ]
e|------9--9---9---9----9---9-------|-----7---7---7---7-7----7---7---||
B|----------------------------------|--------------------------------||
G|----------------------------------|-------------------------------.||
D|----------------------------------|-------------------------------.||
A|----------------------------------|--------------------------------||
D|--------7----7---7--7----7---7----|--6----6---6---6-----6----6-----||

Guitar 2:
e|-11--------|--9-------|--7-----|-7----------||
B|----12-----|----12----|---10---|---7--------||
G|.------11--|-------11-|------9-|-----8-----.||
D|.----------|----------|--------|---------9-.||
A|-----------|----------|--------|------------||
E|-----------|----------|--------|------------||

Guitar 3:
Listen to cd for rhythm
e|-----------------|------------------|-------------|----------||
B|.11/9-8----------|-11/9-8-----------|----o--/-----|----------||
G|.-------9-11-13--|--------9-11-(13)-|------/------|(9)------.||
D|-----------------|------------------|-----/--o----|---------.||
A|-----------------|------------------|-------------|----------||
E|-----------------|------------------|-------------|----------||
                                     That means repeat

Thatís about it.
Related for From West Texas tab