Song name
# A B C D E F G H I J K L M N O P Q R S T U V W X Y Z

Extension Cords - Time To Move On With My Life tab

------------------------------------------------------------------
            Time to Move On With My Life - Extension Cords    
------------------------------------------------------------------      

By: Pat Heath

e|------0-----------0------------0-----------0--------0--0-----------|
B|----3-----3-----3-----3------3-----3-----3-----3----3--3-----------|
G|--2-----2-----2-----2------2-----2-----2-----2------2--2-----------|
D|0-----------0------------0-----------0--------------0--0-----------|
A|-------------------------------------------------------4-----------|
E|-------------------------------------------------------------------|
I've done all things.....

e|-0-0-0-0-0-0-0-0-0-0-0-0-0-0-0-0-0-0-0-0-0-0-0-0-0-0-0-0-0-0-0-0---|
B|-3-3-3-3-3-3-3-3-5-5-5-5-5-5-5-5-4-4-4-4-4-4-4-4-3-3-3-3-3-3-3-3---|
G|-2-2-2-2-2-2-2-2-4-4-4-4-4-4-4-4-3-3-3-3-3-3-3-3-2-2-2-2-2-2-2-2---|
D|-0-0-0-0-0-0-0-0-0-0-0-0-0-0-0-0-0-0-0-0-0-0-0-0-0-0-0-0-0-0-0-0---|
A|-4-4-4-4-4-4-4-4-6-6-6-6-6-6-6-6-5-5-5-5-5-5-5-5-4-4-4-4-4-4-4-4---|
E|-------------------------------------------------------------------|
And the more I think....

e|-0-0-0-0-0-0-0-0-0-0-0-0-0-0-0-0-0-0-0-0-0-0-0-0-0-0-0-0-0-0-0-0---|
B|-3-3-3-3-3-3-3-3-5-5-5-5-5-5-5-5-4-4-4-4-4-4-4-4-3-3-3-3-3-3-3-3---|
G|-2-2-2-2-2-2-2-2-4-4-4-4-4-4-4-4-3-3-3-3-3-3-3-3-2-2-2-2-2-2-2-2---|
D|-0-0-0-0-0-0-0-0-0-0-0-0-0-0-0-0-0-0-0-0-0-0-0-0-0-0-0-0-0-0-0-0---|
A|-4-4-4-4-4-4-4-4-6-6-6-6-6-6-6-6-5-5-5-5-5-5-5-5-4-4-4-4-4-4-4-4---|
E|-------------------------------------------------------------------|

e|------0-----------0------------0-----------0--------0--0-----------|
B|----3-----3-----3-----3------3-----3-----3-----3----3--3-----------|
G|--2-----2-----2-----2------2-----2-----2-----2------2--2-----------|
D|0-----------0------------0-----------0--------------0--0-----------|
A|-------------------------------------------------------4-----------|
E|-------------------------------------------------------------------|

e|-0-0-0-0-0-0-0-0-0-0-0-0-0-0-0-0-0-0-0-0-0-0-0-0-0-0-0-0-0-0-0-0---|
B|-3-3-3-3-3-3-3-3-5-5-5-5-5-5-5-5-4-4-4-4-4-4-4-4-3-3-3-3-3-3-3-3---|
G|-2-2-2-2-2-2-2-2-4-4-4-4-4-4-4-4-3-3-3-3-3-3-3-3-2-2-2-2-2-2-2-2---|
D|-0-0-0-0-0-0-0-0-0-0-0-0-0-0-0-0-0-0-0-0-0-0-0-0-0-0-0-0-0-0-0-0---|
A|-4-4-4-4-4-4-4-4-6-6-6-6-6-6-6-6-5-5-5-5-5-5-5-5-4-4-4-4-4-4-4-4---|
E|-------------------------------------------------------------------|


I think this is perfect
its sounds exactly like the song! Any problems email me @ presdentpat@hotmail.com
Tap to rate this tab
# A B C D E F G H I J K L M N O P Q R S T U V W X Y Z