Song name
# A B C D E F G H I J K L M N O P Q R S T U V W X Y Z

Exterio - Sos Fantmes tab

Help us improve GuitareTab! Take a short survey!
-------------------------------------------------------------------------------
			     s.o.s. fantmes- exterio
-------------------------------------------------------------------------------
Tabbed by:titi riendeau
Email:titiriendeau@hotmail.com

Tuning:dadgbe drop d

e|-------------------------------------------------------------------------|
B|-------------------------------------------------------------------------|
G|-------------------------------------------------------------------------|
D|-7-7--7--3-3--3-0-0--0-2-2-0-2--7-7--7-3-3--3-0-0--0-2-2-0-2-------------|
A|-7-7--7--3-3--3-0-0--0-2-2-0-2--7-7--7-3-3--3-0-0--0-2-2-0-2-------------|
D|-7-7--7--3-3--3-0-0--0-2-2-0-2--7-7--7-3-3--3-0-0--0-2-2-0-2-------------|


e|-------------------------------------------------------------------------|
B|-------------------------------------------------------------------------|
G|-------------------------------------------------------------------------|
D|-7-7--7--3-3--3-0-0--0-2-2-0-2--7-7--7-3-3--3-0-0--0-2-2-0-2--7----------|
A|-7-7--7--3-3--3-0-0--0-2-2-0-2--7-7--7-3-3--3-0-0--0-2-2-0-2--7----------|
D|-7-7--7--3-3--3-0-0--0-2-2-0-2--7-7--7-3-3--3-0-0--0-2-2-0-2--7----------|

e|-------------------------------------------------------------------------|
B|-------------------------------------------------------------------------|
G|-------------------------------------------------------------------------|
D|-7-7--7--3-3--3-0-0--0-2-2-0-2--7-7--7-3-3--3-0-0--0-2-2-0-2-------------|
A|-7-7--7--3-3--3-0-0--0-2-2-0-2--7-7--7-3-3--3-0-0--0-2-2-0-2-------------|
D|-7-7--7--3-3--3-0-0--0-2-2-0-2--7-7--7-3-3--3-0-0--0-2-2-0-2-------------|
pm . . . . . . . . . . . . . . . . . . . . . . . . . . . . . . .

rpter jusqu'au refrain qui est la mme chose que le dbut.

je vais travailler le reste de la chanson parce que j'ai pas le temps en ce moment mais 
vais le faire.   les commentaire sont les bienvenus te noter ma tab.

| /  slide up
| \  slide down
| h  hammer-on
| p  pull-off
| ~  vibrato
| +  harmonic
| x  Mute note
============================================================================
Related for Sos Fantmes tab