Song name
# A B C D E F G H I J K L M N O P Q R S T U V W X Y Z

Extermination - Lullaby Of Suicide tab

Band - Extermination
Song - Lullaby of Suicide
Tuning - Tune down a half step


Guitar 1
D#|---------------|---------------|---------------|---------------|1x
A#|--------3------|--------2------|--------3---5--|--------2------|
F#|----4-----4----|----2-----2----|----4-----4----|----2-----2----|
C#|--4---4-----4--|--2---2-----2--|--4---4--------|--2---2-----2--|
G#|2--------------|0--------------|2--------------|0--------------|
D#|---------------|---------------|---------------|---------------|


Guitar 1
D#|---------------|---------------|---------------|---------------|4x
A#|--------3------|--------2------|--------3---5--|--------2------|
F#|----4-----4----|----2-----2----|----4-----4----|----2-----2----|
C#|--4---4-----4--|--2---2-----2--|--4---4--------|--2---2-----2--|
G#|2--------------|0--------------|2--------------|0--------------|
D#|---------------|---------------|---------------|---------------|

Guitar2
D#|---------------|--------0------|------------0--|---------------|4x
A#|3-------2------|3-----------2--|3-------2------|--------2---0--|
F#|------------2--|---------------|---------------|2--------------|
C#|---------------|---------------|---------------|---------------|
G#|---------------|---------------|---------------|---------------|
D#|---------------|---------------|---------------|---------------|


This is the whole tab of Lullaby of Suicide, Enjoy! :P

www.myspace.com/extermination1
Tap to rate this tab
# A B C D E F G H I J K L M N O P Q R S T U V W X Y Z