Song name
# A B C D E F G H I J K L M N O P Q R S T U V W X Y Z

Extol - Of Light And Shade tab

--------------------------------------------------------------------------
		       "Of Light And Shade" - Extol
--------------------------------------------------------------------------
Tabbed by: Greg Frisenda
Email: clanktherobot@yahoo.com (comments welcomed)

Tuning: Standard B
Note: Tune your 6th string down to B, then tune the rest of the strings 
the normal way. Extol does not tune to dropped B as noted on other tabs.	
I was just way too lazy to tab all the palm mutes, hammers, pulls and 
slides. The parts were challenging enough to figure out. If you can get 
through the song, you are good enough to know how to stylize the notes and 
chords to make it sound like the original. Crack your knuckles and get to 
work...Good Luck!

Riff A - Both Guitars, then Left only
e|------------------------------------------------------------------------|
B|------------------------------------------------------------------------|
G|------------------------------------------------------------------------|
D|----------------------------3---6--------------------------3------6-----|
A|-5-5-5-5-5-5------------0-4---4---5-5-5-5-5-5----------0-4----7-8-------|
E|--------------2--2-2-2------------------------2--2-2-2------------------|

e|------------------------------------------------------------------------|
B|------------------------------------------------------------------------|
G|------------------------------------------------------(8-8-8-8-8-8)-----|
D|----------------------------4-------------------------------------------|
A|-5-5-5-5-5-5------------0-1---3--6-6-6-6-6-6-----------6-6-6-6-6-6------|
E|--------------2--2-2-2------------------------0--0-0-0------------------|

Riff A - Right Guitar
e|------------------------------------------------------------------------|
B|------------------------------------------------------------------------|
G|-3-3-3-3-3-3-----------------------3-3-3-3-3-3--------------------------|
D|----------------------------7---10-------------------------7--------10--|
A|------------------------0-8---8------------------------0-8----11-12-----|
E|--------------2--2-2-2------------------------2--2-2-2------------------|

e|------------------------------------------------------------------------|
B|------------------------------------------------------------------------|
G|-3-3-3-3-3-3------------------------------------------------------------|
D|----------------------------4----9-9-9-9-9-9-----------9-9-9-9-9-9------|
A|------------------------0-1---3-----------------------------------------|
E|--------------2--2-2-2------------------------0--0-0-0------------------|

e|---------------------|     --------|
B|---------------------|     --------|	
G|---------------------| x4  --------| end these chords on the last time
D|-----------4-2-5-4-2-|     --4--2--|
A|-----------4-2-5-4-2-|     --4--2--|
E|-0--0-0-0--2-0-3-2-0-|     --2--0--|

Riff B (Verse)
e|-----------------------------------------------------------------|
B|-----------------------------------------------------------------|
G|-----------------------------------------------------------------|
D|-5-5-5-5-5-5-5-7-7-7-7-7-7-7-7---7-7-7-7-7-7-7-8-8-8-8-8-2-2-2---|
A|-5-5-5-5-5-5-5-7-7-7-7-7-7-7-7---7-7-7-7-7-7-7-8-8-8-8-8-2-2-2---|
E|-3-3-3-3-3-3-3-5-5-5-5-5-5-5-5---5-5-5-5-5-5-5-6-6-6-6-6-0-0-0---|

Riff B (Verse)
e|-----3-----3-----3-----3-------------3-----3-----3-----3-----------|
B|---3-----3-----3-----3-------------3-----3-----3-----3-------------|
G|-6-----6-----6-----6-------------6-----6-----6-----6---------------| x2
D|-------------------------------------------------------------------|
A|-------------------------0-0-0-------------------------------------|
E|----------------------------------------------------------0-0-0----|

Repeat Riff B, appregiating pattern throughout
Repeat Riff A x2
Repeat Riff B

Riff C (Bridge)
e|-----------------------------------------------------|
B|-----------------------------------------------------|
G|---------------5----------------------5-7-575--------|
D|-7---7-8-5-7-8---7------7---7-8-5-7-8---------7------|
A|---6---------------8--3---3---------------------8-5--|
E|-----------------------------------------------------|

e|-----------------------------------------------------|
B|-----------------------------------------------------|
G|---------------5----------------------5-7-575--------|
D|-7---7-8-5-7-8---7------7---7-8-5-7-8---------7------|
A|-------------------8----------------------------8-5--|
E|---3------------------6---6--------------------------|

Riff C ringing chords
e|--------------------------|
B|--------------------------|
G|-8----5-------------------|
D|-8----5-----5------8------|
A|-6----3-----5------8------|
E|------------3------6------|

Riff C main riff chords
e|------------------------------------------------------------------------|
B|------------------------------------------------------------------------|
G|-8-8-8-8-8-8-8-8-8-8-5-5-5-5-5-5-5-5-5-5-5-5-5-5------------------------|
D|-8-8-8-8-8-8-8-8-8-8-5-5-5-5-5-5-5-5-5-5-5-5-5-5-5-5-5-5-5-5-5-5-5-5----|
A|-6-6-6-6-6-6-6-6-6-6-3-3-3-3-3-3-3-3-3-3-3-3-3-3-5-5-5-5-5-5-5-5-5-5----|
E|-------------------------------------------------3-3-3-3-3-3-3-3-3-3----|

e|-------------------------------|
B|-------------------------------|
G|-------------------------------|
D|-8-8-8-8-8-8-8-8-8-8-8-8-8-8---|
A|-8-8-8-8-8-8-8-8-8-8-8-8-8-8---|
E|-6-6-6-6-6-6-6-6-6-6-6-6-6-6---|

Riff D
e|-----------------------------------------------------|------------|
B|-----------------------------------------------------|------------|
G|--------------------------------------------7-7-5-5--|--10-10-10--|
D|----------7---------------8-----7-----------5-5-7-7--|--8--8--8---|
A|------------5---------------6------5-5-5-5-----------|--6--6--6---|
E|-3-3-3-3------6--5-5-5-5------8----------------------|------------|

Repeat Riff A x2

Riff E - both guitars, then left only
e|------------------------------------------------------------------------|
B|------------------------------------------------------------------------|
G|------------------------------------------------------------------------|
D|------------------------------------------------------------------------|
A|------------------------------------------------------------------------|
E|-2--3--2-3-2-0--2---2--3--2-3-2-0--2--2--5--3--0---2--3--2-3-2-0--2-----|

e|-----------------------------|
B|-----------------------------|
G|-----------------------------|
D|-----------------------------|
A|-----------------------------|
E|--2--3--2-3-2-0--2--2--5--3--|

Riff E - right guitar
e|------------------------------------------------------------------------|
B|------------------------------------------------------------------------|
G|------------------------------------------------------------------------|
D|------------------------------------------------------------------------|
A|-4--5--4-5-4-2--4---4--5--4-5-4-2--4--4--7--5--2---4--5--4-5-4-2--4-----|
E|------------------------------------------------------------------------|

e|-----------------------------|
B|-----------------------------|
G|-----------------------------|
D|-----------------------------|
A|--4--5--4-5-4-3--4--4--7--5--|
E|-----------------------------|

Riff F
e|-------------------------------------------------------------------|
B|-------------------------------------------------------------------|
G|-------------------------------------------------------------------|
D|-------------------------------------------------------------------|
A|-4-5-4-2-4---4-5-4-2-4---4-7-5-2----4-5-4-2-4--4-5-4-2-4---4-7-5---|
E|-2-3-2-0-2---2-3-2-0-2---2-5-3-0----2-3-2-0-2--2-3-2-0-2---2-5-3---|

Fade Out


| /  slide up
| \  slide down
| h  hammer-on
| p  pull-off
| ~  vibrato
| +  harmonic
| x  Mute note
============================================================================
Tap to rate this tab
 
# A B C D E F G H I J K L M N O P Q R S T U V W X Y Z