Song name
# A B C D E F G H I J K L M N O P Q R S T U V W X Y Z

Extol - Confession Of Inadequacy tab

---------------------------------------------------------------------------
		       "CONFESSION OF INADEQUACY" - Extol
---------------------------------------------------------------------------
Tabbed by: Greg Frisenda
Email: clanktherobot@yahoo.com (comments welcomed)

Tuning: Standard D
Note: Tune your 6th string to D, then tune the rest of the strings the 
normal way. Extol does not tune to dropped D as noted on other tabs.	

I was just way too lazy to tab all the palm mutes, hammers, pulls and 
slides. The parts were challenging enough to figure out. If you can get 
through the song, you are good enough to know how to stylize the notes
and chords to make it sound like the original. Crack your knuckles and get 
to work...Good Luck!

Riff A - 2x
e|-----------------------------------------------------|
B|-----------------------------------------------------|
G|-----------------------------------------------------|
D|-2-2-2-2-2-2-3-3-3-7-7-7-5-5-------------------------|
A|-0-0-0-0-0-0-1-1-1-5-5-5-3-3-5-5-5-6-6-6-6-5-5-4-4---|
E|-----------------------------3-3-3-4-4-4-4-3-3-2-2---|

Riff A Fill - 2x
e|-------------------------------------8-----------------------|
B|------6-5--10-8----11--------------------------12---8--------|
G|-5-7------------------10-9-------7-9---------9--------10-----|
D|---------------------------10-8---------10-9-------------8---|
A|-------------------------------------------------------------|
E|-------------------------------------------------------------|

Riff B
e|-----------------------------------------------------|
B|-----------------------------------------------------|
G|-----------------------------------------------------|
D|-2-2-2-2-2-2-3-3-3-7-7-7-5-5-------------------------|
A|-0-0-0-0-0-0-1-1-1-5-5-5-3-3-5-5-5-7-7-7-7-6-6-5-5---|
E|-----------------------------3-3-3-4-4-4-4-3-3-2-2---|

Riff C
e|----------------0--------------------4-----------------------|
B|-------2------2--------------4----------------------------3--|
G|-----4------4------------------6---6--------------------3----|
D|---4------0----------------------4------------2-3-2-0-1------|
A|-2------------------1-1-1-4----------------------------------|
E|----------------------------------------0-0-0----------------|

e|----------------0-----------------|
B|-------2------2-------------4-----|
G|-----4------4-----------------0---|
D|---4------0-----------------------|
A|-2------------------1-1-1-4-------|
E|----------------------------------|

RIff D
e|------------------------------------------------------------------------|
B|---3------2----3------2------0--------------3------2----3------2-----0--|
G|--------0-----------0------5---------------------0-----------0-----5----|
D|-------------------------4---------------------------------------4------|
A|-3----1------3----1-----------------------3----1------3----1------------|
E|--------------------------------0-0-0--0-------------------------------0|

Repeat Riff C
Repeat Riff D

Riff D End Notes
e|-----------------|
B|-----------------|
G|-----------------|
D|-----------------|
A|-----------------|
E|-0-0-0--0-0-0--0-|

Riff E
e|---------------------|
B|---------------------|
G|-8----------5--------|
D|-8----7-----5-----3--|
A|-6----7-----3-----3--|
E|------5-----------1--|

Riff E Fill
e|-------------------------|
B|-------------------------|
G|----8--6--4--------------|
D|-5-------------9--10--7--|
A|-------------------------|
E|-------------------------|

Riff F
e|----------4------------4-----------4------------4------------4---------|
B|----2---2--------2---2-------2---2--------2---2--------2---2------2----|
G|------4------------4-----------4------------4------------4----------4--|
D|-----------------------------------------------------------------------|
A|-0------------0-----------0------------0------------0-----------0------|
E|-----------------------------------------------------------------------|

e|---4-----------3-----------2-----------4------------4-----------5------|
B|-2---------0-----------0---------2---2--------2---2-------3---3--------|
G|---------5---5-------5---5---------4------------4-----------4----------|
D|------0------------0------------------------------------2-----------3--|
A|-------------------------------0-----------0---------------------------|
E|-----------------------------------------------------------------------|

e|-------5-----------4-----------4-----------3------------2------------0-|
B|-3---3-------2---2-------2---2---------0------------0------------1-----|
G|---4-----------4-----------4---------5---5--------5---5--------2---2---|
D|----------------------------------0------------0------------3----------|
A|----------0-----------0------------------------------------------------|
E|-----------------------------------------------------------------------|

e|----------0--|
B|------1------|
G|----2---2----|
D|-3-----------|
A|-------------|
E|-------------|

Riff F - low volume guitar in right speaker
e|----------0-------------0------------0----------0----------0----------0-|
B|-------10------------10-----------10---------10---------10---------10---|
G|----13------------13-----------12---------11---------13---------13------|
D|------------------------------------------------------------------------|
A|------------------------------------------------------------------------|
E|------------------------------------------------------------------------|

e|-------0------------0-----------0------------0------------0----------0--|
B|----10-----------10----------10-----------10-----------10---------10----|
G|-12-----------12----------13-----------13-----------12---------11-------|
D|------------------------------------------------------------------------|
A|------------------------------------------------------------------------|
E|------------------------------------------------------------------------|

e|-------0------------0---|
B|----10-----------10-----|
G|-12-----------12--------|
D|------------------------|
A|------------------------|
E|------------------------|

Riff G - Left Guitar
e|--------------------------------------------------------------------|
B|-------3-----6-----5-------3---------3-------6----------5-----------|
G|----------3-----5-----5-------3---------3--5---------4-----0--------|
D|------------------------5----------5------------3--2----------3-----|
A|-1--3----------------------------3-------------------------------1--|
E|--------------------------------------------------------------------|

Riff G Right Guitar is Riff A Fill

Repeat Riff A with Fill - 2x
Repeat Riff B - 2x
Repeat Riff D
Repeat Riff C
Repeat Riff D
Repeat Riff D End Notes

Riff H - Left Guitar
e|---------------------------------|
B|---------------------------------|
G|-6-----------5---6---------------|
D|-6---4---2---5---6---6---5---7---|
A|-4---4---2---3---4---4---5---7---|
E|-----2---0-----------2---3---5---|

Riff H - Right Guitar
e|-7---6---7---7---7---6---0---0---|
B|-5---5---7---5---5---5---7---7---|
G|-6---6---6---5---6---6---6---5---|
D|-6---4-------5---6---4---5---5---|
A|---------7-------------------0---|
E|---------------------------------|

Riff I
e|-0----0-------0------0----0----0----0----0----0-------0----------0----0-|
B|-0------0--0----0----0------0--0------0--0------0--0----0---0---------1-|
G|-6---------3------3--4---------5---------6---------3------3-4------0--2-|
D|-6--6------4---------2--2------5--5------6--6------4--------5--5------2-|
A|-4---------4---------2---------3---------4---------4--------5---------0-|
E|-----------2---------0-----------------------------2--------3-----------|

Riff J - Left Guitar - fade out
e|---------------------4----------------------4----------------------3----|
B|-----------------2----------------------2------------------------0------|
G|-------------------4----------------------4--------------------5--------|
D|-----------------------------------------------0-0-0--0--0--0-----------|
A|-0-0-0--0--0--0---------0-0-0--0--0--0----------------------------------|
E|------------------------------------------------------------------------|

e|---------------------2----------------------4----------------------4----|
B|-------------------0--------------------2----------------------2--------|
G|-----------------5------------------------4----------------------4------|
D|-0-0-0--0--0--0---------------------------------------------------------|
A|------------------------0-0-0--0--0--0---------0-0-0--0--0--0-----------|
E|------------------------------------------------------------------------|

e|---------------------5-----------------------5--|
B|-----------------3-----------------------3------|
G|-------------------4-----------------------4----|
D|-2-2-2--2--2--2----------3-3-3--3--3--3---------|
A|------------------------------------------------|
E|------------------------------------------------|

Riff J - Right Guitar - fade out
e|-----------------------0-------------------------0----------------------|
B|--------------------10-10---------------------10-10---------------------|
G|-----------------13----13------------------13----13---------------------|
D|-----------------------------------------------------0-0-0--0--0--0-----|
A|-0-0-0--0--0--0------------0-0-0--0--0--0-------------------------------|
E|------------------------------------------------------------------------|

e|-------0-------------------------0-------------------------0------------|
B|----10-10---------------------10-10---------------------10-10-----------|
G|-12----12------------------11----11------------------13----13-----------|
D|-----------0-0-0--0--0--0-----------------------------------------------|
A|-------------------------------------0-0-0--0--0--0------------0-0-0----|
E|------------------------------------------------------------------------|

e|----------------0-------------------------0-------------------------0---|
B|-------------10-10---------------------10-10---------------------10-10--|
G|----------13----13------------------12----12------------------12----12--|
D|------------------------------------------------------------------------|
A|-0--0--0------------7-7-7--7--7--7------------8-8-8--8--8--8------------|
E|------------------------------------------------------------------------|



| /  slide up
| \  slide down
| h  hammer-on
| p  pull-off
| ~  vibrato
| +  harmonic
| x  Mute note
===========================================================================
Tap to rate this tab
 
# A B C D E F G H I J K L M N O P Q R S T U V W X Y Z