Song name
# A B C D E F G H I J K L M N O P Q R S T U V W X Y Z

Extol - Scrape The Surface tab

---------------------------------------------------------------------------
		    "SCRAPE THE SURFACE" - Extol
---------------------------------------------------------------------------
Tabbed by: Greg Frisenda
Email: clanktherobot@yahoo.com (comments welcomed)

Tuning: Standard D
Note: Tune your 6th string to D, then tune the rest of the strings the 
normal way. Extol does not tune to dropped D as noted on other tabs.	

I was just way too lazy to tab all the palm mutes, hammers, pulls and 
slides. The parts were challenging enough to figure out. If you can get 
through the song, you are good enough to know how to stylize the notes
and chords to make it sound like the original. Crack your knuckles and get 
to work...Good Luck!

Riff A - Intro - Left Guitar - 4x
e|------------------------------------------------------------------------|
B|------------------------------------------------------------------------|
G|-2-2-2--2-2-------------------------------------------------------------|
D|-2-2-2--2-2--6-6-6-6--9-9-9-9-9--5-5-5-5-5--6-6-6--5--5-5-5--3-3-3-3----|
A|-0-0-0--0-0--5-5-5-5--8-8-8-8-8--3-3-3-3-3------------------------------|
E|--------------------------------------------7-7-7--6--6-6-6--4-4-4-4----|

Riff A - Intro - Right Guitar - 4x
e|------------------------------------------------------------------------|
B|------------------------------------------------------------------------|
G|6-6-6-6-6-10-10-10-10-14-14-14-14-14------------------------------------|
D|5-5-5-5-5-9--9--9--9--12-12-12-12-12-5-5-5-5-5--6-6-6--5--5-5-5--3-3-3-3|
A|-------------------------------------3-3-3-3-3--------------------------|
E|------------------------------------------------7-7-7--6--6-6-6--4-4-4-4|

Riff B - Verse - Left Guitar - 2x
e|------------------------------------------------------------------------|
B|------------------------------------------------------------------------|
G|------------------------------------------------------------------------|
D|-6-6-6-6-6-6-6-6-6-6-6-6-6-6-6-6-6-6-6-6-6-6-6-6-7-7-7-7-7-7-7-7-7-7-7-7|
A|-6-6-6-6-6-6-6-6-6-6-6-6-6-6-6-6-6-6-6-6-6-6-6-6-7-7-7-7-7-7-7-7-7-7-7-7|
E|-4-4-4-4-4-4-4-4-4-4-4-4-4-4-4-4-4-4-4-4-4-4-4-4-5-5-5-5-5-5-5-5-5-5-5-5|

e|------------------------------------------------------------------------|
B|------------------------------------------------------------------------|
G|------------------------------------------------------------------------|
D|-7-7-7-7-7-7-7-7-7-7-7-7-6-6-6-6-6-6-6-6-6-6-6-6-6-6-6-6-6-6-6-6-6-6-6-6|
A|-7-7-7-7-7-7-7-7-7-7-7-7-6-6-6-6-6-6-6-6-6-6-6-6-6-6-6-6-6-6-6-6-6-6-6-6|
E|-5-5-5-5-5-5-5-5-5-5-5-5-4-4-4-4-4-4-4-4-4-4-4-4-4-4-4-4-4-4-4-4-4-4-4-4|

e|------------------------------------------------------------------------|
B|------------------------------------------------------------------------|
G|-------------------------------------------------7-7-7-7-7-7-7-7-7-7-7-7|
D|-7-7-7-7-7-7-7-7-7-7-7-7-7-7-7-7-7-7-7-7-7-7-7-7-7-7-7-7-7-7-7-7-7-7-7-7|
A|-7-7-7-7-7-7-7-7-7-7-7-7-7-7-7-7-7-7-7-7-7-7-7-7-5-5-5-5-5-5-5-5-5-5-5-5|
E|-5-5-5-5-5-5-5-5-5-5-5-5-5-5-5-5-5-5-5-5-5-5-5-5-5-5-5-5-5-5-5-5-5-5-5-5|

e|---------------------------|
B|---------------------------|
G|-7-7-7-7-7-7-7-7-7-7-7-7---|
D|-7-7-7-7-7-7-7-7-7-7-7-7---|
A|-5-5-5-5-5-5-5-5-5-5-5-5---|
E|-5-5-5-5-5-5-5-5-5-5-5-5---|

Riff B - Verse - Right Guitar - 2x
e|---------------------------------------------7-7-7----------------------|
B|-9-9-9-9-9-9-9-9-9-9-9-9-9-9-9-9-9-9-7-7-7-7-7-7-7-9-9-9-9-9-9-9-9-9-9-9|
G|-8-8-8-8-8-8-8-8-8-8-8-8-9-9-9-9-9-9-9-9-9-9-------8-8-8-8-8-8-8-8-8-8-8|
D|------------------------------------------------------------------------|
A|------------------------------------------------------------------------|
E|------------------------------------------------------------------------|

e|-----------------------7-7-7--------------------------------------------|
B|-9-9-9-9-9-9-9-7-7-7-7-7-7-7-9-9-9-9-9-9-9-9-9-9-9-9-7-7-7-7-7-7-7-7-7-7|
G|-8-9-9-9-9-9-9-9-9-9-9-------9-9-9-9-9-9-9-9-9-9-9-9-7-7-7-7-7-7-7-7-7-7|
D|-----------------------------9-9-9-9-9-9-9-9-9-9-9-9-7-7-7-7-7-7-7-7-7-7|
A|------------------------------------------------------------------------|
E|------------------------------------------------------------------------|

e|------|
B|-7-7--|
G|-7-7--|
D|-7-7--|
A|------|
E|------|

Riff C - Bridge - Left Guitar
e|-----------------------------------------------------|
B|-----------------------------------------------------|
G|---------------------------8-8-8-8-8-8-8-8-8-8-8-8---|
D|-4-4-4-4-4-4-4-4-4-4-4-4-4-8-8-8-8-8-8-8-8-8-8-8-8---|
A|-4-4-4-4-4-4-4-4-4-4-4-4-4-6-6-6-6-6-6-6-6-6-6-6-6---|
E|-2-2-2-2-2-2-2-2-2-2-2-2-2-6-6-6-6-6-6-6-6-6-6-6-6---|

Riff C - Bridge - Right Guitar
e|-----------------------------------------------------|
B|-6-6-6-6-6-6-6-6-6-6-6-6-6-6-6-6-6-6-6-6-6-6-6-6-----|
G|-6-6-6-6-6-6-6-6-6-6-6-6-3-3-3-3-3-3-3-3-3-3-3-3-----|
D|-6-6-6-6-6-6-6-6-6-6-6-6-3-3-3-3-3-3-3-3-3-3-3-3-----|
A|-----------------------------------------------------|
E|-----------------------------------------------------|

Riff D - Pre-Chorus - 4x
e|----------------------------------------------------------------|
B|-------------------------0------0---------------------0-----0---|
G|----------------------6-------6---------------------2-----2-----|
D|--------------------0-------3---------------------1-------------|
A|-4-4-4-4--2-2--3-3------------------4-4-4-4--5-5---------3------|
E|-2-2-2-2--0-0--1-1------------------2-2-2-2--3-3----------------|

Repeat Riff A 4x

Riff E - Chorus
e|------------------------------------------------------------------------|
B|------------------------------------------------------------------------|
G|-----0------------0--------0------0----------------------------0--------|
D|---3------------3--------7------4-----------3-6-6-6-3-3-3----3----------|
A|-1------------2--------6------3----------------------------1------------|
E|-------0-0-0---------0---------------0-0-0--1-4-4-4-1-1-1---------0-0-0-|

e|------------------------------------------------------------------------|
B|------------------------------------------------------------------------|
G|-----0-------0--0-0-0--0-0-0---0-0-0--0-0-0------0-------------0--------|
D|---3-------7----4-4-4--4-4-4---4-4-4--4-4-4----3-------------3--------7-|
A|-2-------6------3-3-3--3-3-3---3-3-3--3-3-3--1-------------2--------6---|
E|-------0--------2-2-2--2-2-2---2-2-2--2-2-2---------0-0-0---------0-----|

e|--------------------------------------------------------------|
B|--------------------------------------------------------------|
G|-0-----0----------------------------0-------------0--------0--|
D|-----4-----------3-6-6-6-3-3-3----3-------------3--------7----|
A|---3----------------------------1-------------2--------6------|
E|----------0-0-0--1-4-4-4-1-1-1---------0-0-0---------0--------|

Riff F - End of Chorus
e|--------------------------------------------|
B|--------------------------------------------|
G|-0-0-0--0-0-0---0-0-0--0-0-0-0------0--0----|
D|-4-4-4--4-4-4---4-4-4--4-4-4-4----3----6----|
A|-3-3-3--3-3-3---3-3-3--3-3-3-3--2------4----|
E|-2-2-2--2-2-2---2-2-2--2-2-2-2---------3----|

Repeat Riff D 4x
Repeat Riff B 2x
Repeat Riff C
Repeat Riff E
Repeat Riff F 4x to End


| /  slide up
| \  slide down
| h  hammer-on
| p  pull-off
| ~  vibrato
| +  harmonic
| x  Mute note
===========================================================================
Tap to rate this tab
# A B C D E F G H I J K L M N O P Q R S T U V W X Y Z