Guitaretab - guitar tabs
Song name
# A B C D E F G H I J K L M N O P Q R S T U V W X Y Z

Extol - Thrash Synergy tab

---------------------------------------------------------------------------
		       "THRASH SYNERGY" - Extol
---------------------------------------------------------------------------
Tabbed by: Greg Frisenda
Email: clanktherobot@yahoo.com (comments welcomed)

Tuning: Standard D
Note: Tune your 6th string to D, then tune the rest of the strings the 
normal way. Extol does not tune to dropped D as noted on other tabs.	

I was just way too lazy to tab all the palm mutes, hammers, pulls and 
slides. The parts were challenging enough to figure out. If you can get 
through the song, you are good enough to know how to stylize the notes
and chords to make it sound like the original. Crack your knuckles and get 
to work...Good Luck!

Riff A - Left Guitar - 4x
e|-----------------------------------------------------------|
B|-----------------------------------------------------------|
G|--------------------8----------------------------------8---|
D|--------------------8----------------------------------8---|
A|--------------------6----------------------------------6---|
E|-0-0-0-0--0-0-0-0---6---------------0-0-0-0--0-0-0-0---6---|

Riff A - Right Guitar - 4x
e|-----------------------------------------------------------|
B|-----------------------------------------------------------|
G|--------------------8----------------------------------7---|
D|--------------------8----------------------------------8---|
A|--------------------6----------------------------------6---|
E|-0-0-0-0--0-0-0-0---6---------------0-0-0-0--0-0-0-0---6---|

Fill A - 4x
e|-----------------------------------------------------------|
B|-----------------------------------------------------------|
G|-----------------------0-0-6-0-0-7-------------------------|
D|-----------------------------------------------------------|
A|-----------------------------------------------------------|
E|-----------------------------------------------------------|

Riff B - Both Guitars - Verse - 2x
e|------------------------------------------------------------------------|
B|------------------------------------------------------------------------|
G|------------------------------------------------------------------------|
D|-9---------7-0-------6---------------9---------7-0-------6------------11|
A|-8-----------------4-----------------8-----------------4---------7-10---|
E|----0-0-0------3-6------0-0-0--0--0-----0-0-0------3-6-----0-0-0--------|

e|------------------------------------------------------------------------|
B|------------------------------------------------------------------------|
G|------------------------------------------------------------------------|
D|-9---------7-0-------6---------------9---------7-0-------6------------11|
A|-8-----------------4-----------------8-----------------4---------7-10---|
E|----0-0-0------3-6------0-0-0--0--0-----0-0-0------3-6-----0-0-0--------|

e|---------------|
B|---------------|
G|---------------|
D|---------------|
A|-0-0-0-7-7-7---|
E|---------------|

Riff C - Left Guitar - Chorus - 2x
e|-------------7-------------7--------------5--------------5--------------|
B|-------------7-------------7--------------5--------------5--------------|
G|------------(7)-----------(7)------------(5)------------(5)-------------|
D|------------------------------------------------------------------------|
A|-0-0-0-7-7-7---0-0-0-7-7-7----0-0-0-7-7-7----0-0-0-7-7-7----0-0-0-7-7-7-|
E|------------------------------------------------------------------------|

e|-------------------------7--------------7-------------5--------------5--|
B|-------------------------7--------------7-------------5--------------5--|
G|------------------------(7)------------(7)-----------(5)------------(5)-|
D|------------------------------------------------------------------------|
A|-------------0-0-0-7-7-7---0-0-0-7-7-7----0-0-0-7-7-7----0-0-0-7-7-7----|
E|-4-4-4-4-4-4------------------------------------------------------------|

e|--------------------------|
B|--------------------------|
G|--------------------------|
D|--------------------------|
A|-0-0-0-7-7-7--------------|
E|--------------4--4--3--3--|

Riff C - Right Guitar - Chorus - 2x
e|-------------7-------------7--------------5--------------5--------------|
B|-------------7-------------7--------------5--------------5--------------|
G|------------(7)-----------(7)------------(5)------------(5)-------------|
D|------------------------------------------------------------------9-9-9-|
A|-0-0-0-7-7-7---0-0-0-7-7-7----0-0-0-7-7-7----0-0-0-7-7-7----7-7-7-------|
E|------------------------------------------------------------------------|
[ Tab from: http://www.guitaretab.com/e/extol/104656.html ]
e|-------------------------7--------------7-------------5--------------5--|
B|-------------------------7--------------7-------------5--------------5--|
G|------------------------(7)------------(7)-----------(5)------------(5)-|
D|------------------------------------------------------------------------|
A|-6-6-6-6-6-6-0-0-0-7-7-7---0-0-0-7-7-7----0-0-0-7-7-7----0-0-0-7-7-7----|
E|------------------------------------------------------------------------|

e|--------------------------|
B|--------------------------|
G|-----------------------7--|
D|-------9-9-9--------------|
A|-7-7-7--------6--6--5-----|
E|--------------------------|

Repeat Riff B 2x
Repeat Riff C 2x

Riff D - 2x
e|------------------------------------------------------------------------|
B|------------------------------------------------------------------------|
G|-7--7--7---7--7--7---8--8--8-------------6--6--6---6--6---7--7--7---7--7|
D|-5--5--5---5--5--5---6--6--6---8--8--8---4--4--4---4--4---5--5--5---5--5|
A|-3--3--3---3--3--3---4--4--4---6--6--6---2--2--2---2--2---3--3--3---3--3|
E|-------------------------------4--4--4----------------------------------|

e|---------------------------------------------------------------|
B|---------------------------------------------------------------|
G|-7---8--8--8---------------------------------6--6--6--6--6--6--|
D|-5---6--6--6---8--8--8---6--6--6---6--6--6---4--4--4--4--4--4--|
A|-3---4--4--4---6--6--6---4--4--4---4--4--4---2--2--2--2--2--2--|
E|---------------4--4--4---2--2--2---2--2--2---------------------|

Riff E - Left Guitar
e|----------------------------------|
B|----------------------------------|
G|--------------9--------------11---|
D|-------10---9--------12---11------|
A|-----8----7-------10----9---------|
E|-5-6------------8-----------------|

Riff E - Right Guitar
e|----------------------------------|
B|--------------------------10------|
G|-----0-8-0-7-0-----10---9---------|
D|-----------------8----7-----------|
A|-0-5-----------6------------------|
E|----------------------------------|

Repeat Riff A - 4x (left, right, and fill)
Repeat Riff A - 4x (both guitars play left guitar part, no fill)

Riff F - Left Guitar - Bridge - 4x
e|-------------------------------6-0--------------------------------------|
B|--------------------0--------------4------------------------------0-----|
G|------------------6------------------3--1--1-1------------------6-------|
D|-----------6-6---------3--3-3----------------------------6-6------------|
A|-1-3-3-4-4-----3-------------------------------1-3-3-4-4-----3----------|
E|------------------------------------------------------------------------|

e|---------6-0----------------------------|
B|-------------4--------------------------|
G|---------------3--2------6--------------|
D|-3--3-3--------------0------------------|
A|---------------------------3--3---------|
E|---------------------------------4-4-4--|

Riff F - Right Guitar - Bridge - 4x
e|-------------------------------6-0--------------------------------------|
B|--------------------0--------------4------------------------------0-----|
G|------------------6------------------3--1--1-1------------------6-------|
D|-----------6-6---------3--3-3----------------------------6-6------------|
A|-1-3-3-4-4-----3-------------------------------1-3-3-4-4-----3----------|
E|------------------------------------------------------------------------|

e|----------------------------------------|
B|---------5-0----------------------------|
G|-------------3--------------------------|
D|-3--3-3--------0--3--0---4--------------|
A|---------------------------3--3---------|
E|---------------------------------4-4-4--|

Riff G - 2x (second time, last chord struck 4x instead of 6x)
e|------------------------------------------------------------------------|
B|------------------------------------------------------------------------|
G|-9--9--9---9--9--9---10--10--10--------------8--8--8---8--8---9--9--9---|
D|-7--7--7---7--7--7---8---8---8---10--10--10--6--6--6---6--6---7--7--7---|
A|-5--5--5---5--5--5---6---6---6---8---8---8---4--4--4---4--4---5--5--5---|
E|---------------------------------6---6---6------------------------------|

e|------------------------------------------------------------------------|
B|------------------------------------------------------------------------|
G|-9--9--9---10--10--10----------------------------------8--8--8--8--8--8-|
D|-7--7--7---8---8---8---10--10--10--8--8--8---8--8--8---6--6--6--6--6--6-|
A|-5--5--5---6---6---6---8---8---8---6--6--6---6--6--6---4--4--4--4--4--4-|
E|-----------------------6---6---6---4--4--4---4--4--4--------------------|

Repeat C 2x
Repeat B - fade out


| /  slide up
| \  slide down
| h  hammer-on
| p  pull-off
| ~  vibrato
| +  harmonic
| x  Mute note
===========================================================================
Related for Thrash Synergy tab
Advertisement will be closed in 10 seconds