Song name
# A B C D E F G H I J K L M N O P Q R S T U V W X Y Z

Extol - A Structure Of Souls tab

---------------------------------------------------------------------------
	              A STRUCTURE OF SOULS - Extol
---------------------------------------------------------------------------
Tabbed by: Greg Frisenda
Email: clanktherobot@yahoo.com (comments welcomed)

Tuning: Standard B
Note: Tune your 6th string down to B, then tune the rest of the strings 
the normal way. Extol does not tune to dropped B as noted on other tabs.	

I was just way too lazy to tab all the palm mutes, hammers, pulls and 
slides. The parts were challenging enough to figure out. If you can get 
through the song, you are good enough to know how to stylize the notes and 
chords to make it sound like the original. Crack your knuckles and get to 
work...Good Luck!

Riff A - Intro - 4x - with Fill A
e|--------------------------------------------|
B|--------------------------------------------|
G|--------------------------------------------|
D|-2--2--2--2-------------------2----5--------|
A|-0--0--0--0-------------------2----5---2----|
E|-------------1-1-1-1-1-1-1-1--0----3--------|

Fill A - 4x
e|-----------------------------|
B|-2--3--2-3-2-0---------------|
G|---------------2-4-5---------|
D|---------------------5--4--0-|
A|-----------------------------|
E|-----------------------------|

Riff B - Intro - 2x - with Fill B
e|-------------------------------------------------|
B|-------------------------------------------------|
G|-------------------------------------------------|
D|-2---------5--4--3--2---------5--4--3------------|
A|-2--2-3-2--5--4--3--2--2-3-2--5--4--3--8--7-7-9--|
E|-0---------3--2--1--0---------3--2--1--6--8-8-7--|

Fill B - 2x
   hb              hb hb              hb   hb               2x
e|------------------------------------------------------------|-----------|
B|------------------------------------------------------------|-----------|
G|-----------0--2--2-------------0--2--2---2--2--0------------|-----------|
D|-2---0-2-3----------2---0-2-3--------------------3--2-1-----|--2--------|
A|------------------------------------------------------------|-----------|
E|------------------------------------------------------------|-----------|

Riff C - Verse - Clean Tone - 4x
e|-----------------------------------------------------------|
B|-----------------------------------------------------------|
G|-------0-------0-------0-----------0-------0-------0-------|
D|---7-------7-------7-------7---7-------7-------7-------7---|
A|-----------------------------------------------------------|
E|-5---5---5---5---5---5---5---6---6---6---6---6---6---6-----|

Riff D - Verse
e|----------------------------------------------------|
B|----------------------------------------------------|
G|-------0------------0------------0-----------0------|
D|---5-------5----3-------3----3-------3---5-------5--|
A|---------------------------1---1---1---3---3---3----|
E|-3---3---3----1---1---1-----------------------------|

Repeat Riff C once

Riff E - Verse - 4x
e|--------------------------|
B|--------------------------|
G|-------0-----------0------|
D|---7-------7---7-------7--|
A|--------------------------|
E|-0---0---0---6---6---6----|

Riff E - Heavy Guitar
e|------------------------------------------------------------------------|
B|------------------------------------------------------------------------|
G|------------------------------------------------------------------------|
D|-2-8-2-8-2-2-2-2-2-2-2-2-8-8-8-8-8-8-8-8-2-2-2-2-2-2-2-2-8-8-8-8-8-8-8-8|
A|-2-8-2-8-2-2-2-2-2-2-2-2-8-8-8-8-8-8-8-8-2-2-2-2-2-2-2-2-8-8-8-8-8-8-8-8|
E|-0-6-0-6-0-0-0-0-0-0-0-0-6-6-6-6-6-6-6-6-0-0-0-0-0-0-0-0-6-6-6-6-6-6-6-6|

Riff F - Chorus - Guitar 1 - 2x
e|------------------------------------------------------------------------|
B|------------------------------------------------------------------------|
G|--------4-5--5-5------4-5--5-------------------------------------4-5-5-5|
D|-2------4-5--5-5------4-5--5--3-3-3--7-7-7--6-6-6--6-6-6--2------4-5-5-5|
A|-2------2-3--3-3------2-3--3--3-3-3--7-7-7--6-6-6--6-6-6--2------2-3-3-3|
E|-0-0-0------------0-0---------1-1-1--5-5-5--4-4-4--4-4-4--0-0-0---------|

e|------------------------------------------|
B|------------------------------------------|
G|------4-5--5------------------------------|
D|------4-5--5--3-3-3--6-6-6--5-5-5--5-5-5--|
A|------2-3--3--3-3-3--6-6-6--5-5-5--5-5-5--|
E|-0-0----------1-1-1--4-4-4--3-3-3--3-3-3--|

Riff F - Chorus - Guitar 2 - 2x
e|------------------------------------------------------------------------|
B|------------------------------------------------------------------------|
G|--------4-4-4-4-------4-5-5-5-5-5-5-5-5-5-5-5-5-5-5-------4-4-4-4-------|
D|-2------2-2-2-2-------2-2-2-3-3-3-3-3-3-3-3-3-3-3-3-2-----2-2-2-2-------|
A|-2------2-2-2-2-------2-2-2-3-3-3-3-3-3-3-3-3-3-3-3-2-----2-2-2-2-------|
E|-0-0-0-----------0-0--------------------------------0-0-0---------0-0---|

e|---------------------------------|
B|---------------------------------|
G|-4-5-5-5-5-5-5-5-5-4-4-4-4-4-4---|
D|-2-2-2-3-3-3-3-3-3-3-3-3-3-3-3---|
A|-2-2-2-3-3-3-3-3-3-3-3-3-3-3-3---|
E|---------------------------------|

Riff G - Left Guitar - 2x
e|------------------------------------------------------------------------|
B|------------------------------------------------------------------------|
G|------------------------------------------------------------------------|
D|-----------------7-7-7-7-10-10-10-10-9-9-9-9-5-5-5-5-6-6-6-6-6-5-5-5-5-5|
A|-0-0-0-0-7-7-7-7-------------------------------------4-4-4-4-4-4-4-4-4-4|
E|------------------------------------------------------------------------|

e|------------------------------------------------------------------------|
B|------------------------------------------------------------------------|
G|---------------------------------14-14-14-14-12-12-12-12----------------|
D|---------10-10-10-10-14-14-14-14-------------------------12-12-12-12----|
A|-0-0-0-0----------------------------------------------------------------|
E|------------------------------------------------------------------------|

e|---------------------------------------|
B|---------------------------------------|
G|-15-15-15-15-15-15-15-15-15-15-15-15---|
D|-13-13-13-13-13-13-13-13-13-13-13-13---|
A|-15-15-15-15-15-15-13-13-13-13-13-13---|
E|---------------------------------------|

Repeat Riff F - 2x

Riff H
e|-------0--------0--------0------|
B|-----0--------0--------0--------|
G|---3--------3--------3----------|
D|-4--------4---------------------|
A|-4--------4--------3------------|
E|-2--------2--------1------------|

Riff I
e|--------------------------|
B|--------------------------|
G|--------------------------|
D|-------------8--8-8---8---|
A|-------------6--6-6---6---|
E|-0-0-0-0--0--6--6-6---6---|

additional Right Guitar part
e|-----------------------------|
B|-----------------------------|
G|-------------5-6--6-6-6--5---|
D|-----------------------------|
A|-------------3-4--4-4-4--3---|
E|-0-0-0-0--0------------------|

Repeat Riff A
Repeat Riff B
Repeat Riff C
Repeat Riff F
Repeat Riff I with additional Right Guitar part
End


| /  slide up
| \  slide down
| h  hammer-on
| p  pull-off
| ~  vibrato
| +  harmonic
| x  Mute note
===========================================================================
Tap to rate this tab
# A B C D E F G H I J K L M N O P Q R S T U V W X Y Z