Song name
# A B C D E F G H I J K L M N O P Q R S T U V W X Y Z

Extol - Where Sleep Is Rest tab

--------------------------------------------------------------------------
		     "WHERE SLEEP IS REST" - Extol
--------------------------------------------------------------------------
Tabbed by: Greg Frisenda
Email: clanktherobot@yahoo.com (comments welcomed)

Tuning: Standard B
Note: Tune your 6th string down to B, then tune the rest of the strings 
the normal way. Extol does not tune to dropped B as noted on other tabs.	

I was just way too lazy to tab all the palm mutes, hammers, pulls and 
slides. The parts were challenging enough to figure out. If you can get 
through the song, you are good enough to know how to stylize the notes and 
chords to make it sound like the original. Crack your knuckles and get to 
work...Good Luck!

Riff A - Left Guitar - 4x                                         *h. bend
e|------------------------------------------------------------------------|
B|------------------------------------------------------------------------|
G|----8--------9---------------------8--------9---------------6---6---6---|
D|-4-----7--6-----6---7----6------4-----7--6-----6---4--7--9--------------|
A|------------------------------------------------------------------------|
E|------------------------------------------------------------------------|

Riff A - Right Guitar - 4x                                         *h.bend
e|-----11--------12------------------11------12---------------------------|
B|---------10-9------9--10--9-----------10-9-----9-----10--12--14--14--14-|
G|-11-----------------------------11----------------11--------------------|
D|------------------------------------------------------------------------|
A|------------------------------------------------------------------------|
E|------------------------------------------------------------------------|

Riff B - Both Guitars - 2x (second time, hit last chord once)
e|-3--3--3--2--2--2--3--3--3--3--3--3--3--3--3----------------------------|
B|-3--3--3--3--3--3--3--3--3--3--3--3--3--3--3--7--7--7--8--8--8--7--7--7-|
G|-0--0--0--2--2--2--3--3--3--3--3--3--0--0--0--7--7--7--7--7--7--7--7--7-|
D|----------0--0--0--1--1--1--3--3--3-----------7--7--7--9--9--9--9--9--9-|
A|-3--3--3-----------------------------3--3--3--5--5--5--7--7--7--7--7--7-|
E|------------------------------------------------------------------------|

Riff C - Left Guitar (with Fill A)                                *h. bend
e|------------------------------------------------------------------------|
B|------------------------------------------------------------------------|
G|----8--------9---------------------8--------9---------------6---6---6---|
D|-4-----7--6-----6---7----6------4-----7--6-----6---4--7--9--------------|
A|------------------------------------------------------------------------|
E|------------------------------------------------------------------------|

e|------------------------------------------------------------------------|
B|------------------------------------------------------------------------|
G|----8--------9---------------------8--------9---------------6---7---9---|
D|-4-----7--6-----6---7----6------4-----7--6-----6---4--7--9--------------|
A|------------------------------------------------------------------------|
E|------------------------------------------------------------------------|

Riff C - Right Guitar (with Fill A)                                *h.bend           
e|------------------------------------------------------------------------|
B|------------------------------------------------------------------------|
G|----8--------9---------------------8--------9-----------------9--9---9--|
D|-4-----7--6-----6---7----6------4-----7--6-----6---9--11--12------------|
A|------------------------------------------------------------------------|
E|------------------------------------------------------------------------|

e|------------------------------------------------------------------------|
B|------------------------------------------------------------------------|
G|----8--------9---------------------8--------9-----------------9--11--14-|
D|-4-----7--6-----6---7----6------4-----7--6-----6---9--11--12------------|
A|------------------------------------------------------------------------|
E|------------------------------------------------------------------------|

Fill A
e|----------------------|
B|----9-10-9------9-----|
G|-9----------9---------|
D|----------------------|
A|----------------------|
E|----------------------|

Repeat Riff B - 3x (with Solo)

Solo (bend note on g string to full while holding other note on *'s)
   *    *    *    *    *    *    *
e|------------------------------------------------------------------------|
B|-12---10---11---10---12---10---8------------15-------15-----------------|
G|-14---12---13---12---14---12---10-----11-12----11-12-----11-12-11--11---|
D|------------------------------------------------------------------------|
A|------------------------------------------------------------------------|
E|------------------------------------------------------------------------|

   *    *    *    *    *    *    *     *full bend
e|------------------------------------------------------------------------|
B|-12---10---11---10---12---10---8----------------------------------------|
G|-14---12---13---12---14---12---10----10---------------------------------|
D|------------------------------------------------------------------------|
A|------------------------------------------------------------------------|
E|------------------------------------------------------------------------|

Riff D - Acoustic Outro Fade Out - Guitar 1
e|---------------------------------------------------------5---5---------5|
B|-4------4------9---------3---------4-----4------9------0---0-------8----|
G|------4--------9-------4---4--9--------4--------9----0-----------6---6--|
D|----4--------9---9---0--------9------4--------9---9---------------------|
A|-2---------7------------------7----2--------7------------------0--------|
E|------------------------------------------------------------------------|

Riff D - Acoustic Outro Fade Out - Guitar 2
e|-----11--------12------------------11------12---------------------------|
B|---------10-9------9--10--9-----------10-9-----9-----10--12--14--15--14-|
G|-11-----------------------------11----------------11--------------------|
D|------------------------------------------------------------------------|
A|------------------------------------------------------------------------|
E|------------------------------------------------------------------------|

e|-----11--------12-------12--------11------12----------------------------|
B|---------10-9-----9--10----10-9------10-9-----9-----10--12--14--15--14--|
G|-11-----------------------------11----------------11--------------------|
D|------------------------------------------------------------------------|
A|------------------------------------------------------------------------|
E|------------------------------------------------------------------------|

e|-----11--------12-------12-----------------11------12-------------------|
B|---------10-9-----9--10----10-9--9-10-9-------10-9-----9-----10--12--14-|
G|-11--------------------------------------11---------------11------------|
D|------------------------------------------------------------------------|
A|------------------------------------------------------------------------|
E|------------------------------------------------------------------------|

e|----------|
B|-15-14----|
G|----------|
D|----------|
A|----------|
E|----------|


| /  slide up
| \  slide down
| h  hammer-on
| p  pull-off
| ~  vibrato
| +  harmonic
| x  Mute note
===========================================================================
Tap to rate this tab
 
# A B C D E F G H I J K L M N O P Q R S T U V W X Y Z