Song name
# A B C D E F G H I J K L M N O P Q R S T U V W X Y Z

Extol - Will You Be There tab

Tune D-G-C-G-C-d

Intro:   (finger-pick)

d|-0--0--0--0--0----0--0--0--0--0-0--------------------------|
C|-0--0--0--14-10---0--0--0--14-9-10-------------------------|
G|-11-12-14---------11-12-14---------------------------------|
C|-----------------------------------------------------------|
G|-7--9--10---------7--9--10---------------------------------|
D|----------10-8-------------10-7-8--------------------------|

Verse:  (finger-pick)

d|-0-0--0---0----0---0-0--0---0----0---0-0--0--0--0-0-0-0----|
C|-0-0--0---0----0---0-0--0---0----0---0-0--0--0--0-0-0-0----|
G|-7-9--10--9/10-9---7-9--10--9/10-9---7-9--10-9--7-7-7-9----|
C|-----------------------------------------------------------|
G|-----------------------------------------------------------|
D|-8-10-12--12---10--8-10-12--12---10--8-10-12-10-9-9-8-10---|
Tap to rate this tab
# A B C D E F G H I J K L M N O P Q R S T U V W X Y Z