Song name
# A B C D E F G H I J K L M N O P Q R S T U V W X Y Z

Extol - Open The Gates tab

Extol  Open The Gates

-This is the brand new single made by Extol and published to voice the upcoming of their 
2013 album called "Extol".

I'm very excited about the new sound that the band has created;
a mixture between Undeceived and Mesmerized.
I hope that you guys enjoy this TAB, and keep watch for TABs on this upcoming album, and 
of Burial when I get around to it.

God bless! :D

Tabs by BoyOfLol

Tuning: standard B (Undeceived tuning  B-E-A-D-F#-B)

Key:
Half Bend = >
Whole bend = <
Hold note (let ring) = +
Vibrato (obvious cases of) = ~
Palm mute = (X) <- I wont always indicate this.
Slide = /
(Pinch) Harmonic = ^

Time signature : 5/8

Intro (Repeat Twice) (Second time add right side guitar)


e|-------------------------------------------------------------|
B|-------------------------------------------------------------|
G|-------------------------------------------------------------|
D|-3------3------3------3------3-------3--------3--------3-----|
A|-------------------------------------------------------------|
E|---2-1----2-1+---2-1----2-1+---2-1-----2-1+-----2-1------2-1+|

Riff A (Both guitars) (Repeat four times)

e|---------------------------------------------------------|
B|---------------------------------------------------------|
G|---------------------------------------------------------|
D|-3--------------3-------------3------------3-------------|
A|---------(3-3)--------(222)---------(3-3)--------(2222)--|
E|---2-1-1-(1-1)----2-1-(000)-----2-1-(1-1)----2-1-(0000)--|

Riff B (Repeat twice) (Clean)

Left guitar:


e|------------------------|
B|---6+----6+----6+----6+-|
G|-5+----6+----7+----6+---|
D|------------------------|
A|------------------------|
E|------------------------|

Right guitar:


e|------------------------|
B|------------------------|
G|------------------------|
D|---3+----3+----3+----3+-|
A|-3+----4+----5+----4+---|
E|------------------------|


Chorus/Riff C (Both guitars) (Repeat twice)


e|-----------------------------------------------------------|
B|-----------------------------------------------------------|
G|-----------------------------------------------------------|
D|-----------------------------------------------------------|
A|---3---3-3---3---3-3---4--4-4---4---4-4---5---5-5---5-5-5-|
E|-1---1-----1---1-----1---1----1---1-----1---1-----1---1----|

e|---------------------|
B|---------------------|
G|---------------------|
D|---------------------|
A|---4---4-4---4---4-4-|
E|-1---1-----1---1-----|

Riff D (Both guitars clean)


e|-----------------------------------------------------------------------|
B|-----5----5----5------6---6---6------6----6----6-----------------------|
G|---2----2----2---2---3---3---3--3---4---4----4---4-----10----10---10---|
D|-0-----------------0---------------------------------8-----8----8----8-|
A|---------------------------------------------------6-------------------|
E|----------------------------------3------------------------------------|

e|----------------------------------------------------------------------------|
B|-----------------------------------------------------------11----11----11---|
G|-----5----5----5-------6----6----6-------7----7----7-----8-----8-----8----8-|
D|---3----3----3---3---2----2----2---2---5----5----5---5-6--------------------|
A|-1-----------------0-----------------3--------------------------------------|
E|----------------------------------------------------------------------------|

Lead guitar over riff D (Continues on through riff E)


e|-------------------------------------------------------------------------15-|
B|-13+----15------------------------------------------11----11-13-11-13-15----|
G|-----------14/-12-----15------------------14-12/-14+---14-------------------|
D|-------------------------14/-12+----14-15-----------------------------------|
A|----------------------------------------------------------------------------|
E|----------------------------------------------------------------------------|

e|-------------------------------------------------15--------------20----18---|
B|-13+----15------------------------------------13----11/-18----14----14------|
G|-----------14/-12-----15------------10/-12-13-------------------------------|
D|-------------------------14/-12+---------------------------17---------------|
A|----------------------------------------------------------------------------|
E|----------------------------------------------------------------------------|

Riff E (Both guitars)


e|-----------------------------------------------------------------|
B|-----------------------------------------------------------------|
G|-7------7--------7------7--------7------7--------7------7--------|
D|-7-----7--------7------7--------7------7--------7------7--------|
A|-5-(55)-5-(5555)-5-(55)-5-(5555)-5-(55)-5-(5555)-5-(55)-5-(5555)-|
E|-----------------------------------------------------------------|


e|-----------------------------------------------------------------|
B|-8------8--------8------8----------------------------------------|
G|-7------7--------7------7--------10-----10-------10-----10-------|
D|-5-(55)-5-(5555)-5-(55)-5-(5555)-8------8--------8------8--------|
A|---------------------------------6(66)-6-(6666)-6-(66)-6-(6666)-|
E|-----------------------------------------------------------------|

e|-----------------------------------------------------------------|
B|-----------------------------------------------------------------|
G|-5------5--------5------5--------6------6--------6------6--------|
D|-3------3--------3------3--------2------2--------2------2--------|
A|-1-(11)-1-(1111)-1-(11)-1-(1111)-0-(00)-0-(0000)-0-(00)-0-(0000)-|
E|-----------------------------------------------------------------|

e|-----------------------------------------------------------------|
B|---------------------------------11-------11-------11-----11+----|
G|-7------7--------7------7--------8--------8--------8------8+-----|
D|-5------5--------5------5--------6-(6666)---(6666)-6-(66)-6+-----|
A|-3-(33)-3-(3333)-3-(33)-3-(3333)---------------------------------|
E|-----------------------------------------------------------------|

Repeat riff C twice.

Riff F (Short) (Left guitar) repeat four times.

e|-----------------------|
B|-----------------------|
G|-----------------------|
D|---2-1-----------------|
A|-----------2-----------|
E|-0-----4-4-------------|

(Right guitar)

e|-----------------------|
B|---5-4-----------------|
G|-------1-1-4-----------|
D|-2---------------------|
A|-----------------------|
E|-----------------------|

Full riff F (Left guitar) (*Play the starred instead of the bracketed note as the phrase repeats)

e|------------------------------------------------|
B|------------------------------------------------|
G|------------------------------------------------|
D|---2-1-----------7--*6-----2-1-----------5---4+-|
A|-----------2-2-5---5[6]5-----------2-2-3---3----|
E|-0-----4-4---------------0-----4-4--------------|

e|-----------------5-----------------------3---2+-|
B|---5-4---------3---3-4-3---5-4---------1---1----|
G|-------1-1-4-4-----------------1-1-4-4----------|
D|-2-----------------------2----------------------|
A|------------------------------------------------|
E|------------------------------------------------|

Repeat riff F four times. (both guitars play the left guitar part with the star) with 
Tremolo picking.




Open, eerie sound (Xylophone solo) {use noise swells} This part isnt perfect, but its 
more of a mood thing.

e|--------------------------------11~~~~----------------12~~~16~~~~-|
B|-15~~~~~~~~------------12~~~~~~~11~~~~^15~~~~~~14~~~~~13~~~16~~~~-|
G|-----------15~~~~~~~----------------------------------------------|
D|------------------------------------------------------------------|
A|------------------------------------------------------------------|
E|------------------------------------------------------------------|

Riff G (Staccato feel)

e|-------------------------------------------------------------------|
B|-------------------------------------------------------------------|
G|--------9---------------7-7-----7-7------------------5---------6---|
D|-7-7--7--7-77-7--9--7--75-5--8--5-58-8--8--8-83-3--3--3-32-2-2--2-2|
A|-5-5-----5-55-5-----5--5-----------6-6-----6-61-1-----1-10-0----0-0|
E|-------------------------------------------------------------------|

e|----------------------------------|
B|----------------------------------|
G|--------7---8-8--88---------------|
D|-5-5--5--5-56-6--66---------------|
A|-3-3-----3------------------------|
E|--------------------(pick scrape)-|

Repeat riff F four times.
Repeat riff C two times.

Repeat Riff B clean four times with added staccato riff:

e|----------|
B|----------|
G|----------|
D|----------|
A|----------|
E|-1-1--1-1-|

Riff A revised (Repeat four times)

e|----------------------------|
B|----------------------------|
G|----------------------------|
D|-3--------------3-----------|
A|---------(3-3)--------(333)-|
E|---2-1-1-(1-1)----2-1-(111)-|

Ending (Square bracketed notes are played by second guitar)

e|---------------------------------------------------------------------------|
B|---------------------------------------------------------------------------|
G|---------------------------------------------------------------------------|
D|[(33)4]-------[(33)4]---[(33)4]-------[(33)4]---3------3------3------3-----|
A|---------------------------------------------------------------------------|
E|-(11)2-(11)1---(11)2-1+--(11)2-(11)1---(11)2-1+---2-1----2-1----2-1----2-1-|


Good luck learning this masterpiece! :D
If you have any questions or comments about the TAB, please contact me VIA Youtube
(http://www.youtube.com/user/BoyOfLol)
Tap to rate this tab
# A B C D E F G H I J K L M N O P Q R S T U V W X Y Z