Song name
# A B C D E F G H I J K L M N O P Q R S T U V W X Y Z

Extol - Paradigms tab

Help us improve GuitareTab! Take a short survey!
----------------------------------------------------------------------------
		       "PARADIGMS" - Extol
----------------------------------------------------------------------------
Tabbed by: Greg Frisenda
Email: clanktherobot@yahoo.com (comments welcomed)

Tuning: Standard D
Note: Tune your 6th string to D, then tune the rest of the strings the normal way. Extol
not use a dropped D tuning as noted on other tabs.
I was just way too lazy to tab all the palm mutes, hammers, pulls and slides. The parts
challenging enough to figure out. If you can get through the song, you are good enough
know how to stylize the notes and chords to make it sound like the original. Crack your 
and get to work...Good Luck!

Riff A (Intro) 6x
with Fill A 6th time

e|-------------------------------------------|
B|-------------------------------------------|
G|-5-4-4--2-2-2--2--2--5-4-4-4--2-2-2--2--2--|
D|-5-4-4--4-4-4--4--4--5-4-4-4--4-4-4--4--4--|
A|-3-2-2--3-3-3--3--3--3-2-2-2--3-3-3--3--3--|
E|-------------------------------------------|

Fill A

e|-------------------------------------------|
B|-------------------------------------------|
G|-7-6-6--2-2-2--2--2--7-6-6-6--2-2-2--2--2--|
D|-5-4-4--4-4-4--4--4--5-4-4-4--4-4-4--4--4--|
A|-3-2-2--3-3-3--3--3--3-2-2-2--3-3-3--3--3--|
E|-------------------------------------------|

Riff B (4x times, verse)

e|-------------------------------------------------------------------------|
B|-0-0-0-------0-0-0-------------------------------5-5-5-------5-5-5-------|
G|-4-4-4-------4-4-4-------4-4-4-------4-4-4-------5-5-5-------5-5-5-------|
D|-5-5-5--5-5--5-5-5--5-5--2-2-2-------2-2-2-------3-3-3--3-3--3-3-3--3-3--|
A|-0-0-0--0-0--0-0-0--0-0--3-3-3--3-3--3-3-3--3-3--5-5-5--5-5--5-5-5--5-5--|
E|-------------------------0-0-0--0-0--0-0-0--0-0--------------------------|

e|-------------------------|
B|-3-3-3-------3-3-3-------|
G|-3-3-3-------3-3-3-------|
D|-1-1-1--1-1--1-1-1--1-1--|
A|-3-3-3--3-3--3-3-3--3-3--|
E|-------------------------|

Riff C (8x) with Riff C2 after 4x

e|-------------------0------------------------0----------------------------|
B|---------------------6--5----------------0---------------5---------------|
G|----------------2------------------1--3---------3--0-----------------5---|
D|-0-0-0--0-0-2-3---------------------------------------4-----3--0---------|
A|---------------------------4-4-4-4--------------------------------4------|
E|-------------------------------------------------------------------------|

Riff C2 (second guitar) 4x

e|-------------------------------------------------------------------------|
B|---------------------------------------------------------7---------------|
G|-----------------------------------6------------5--0-----------------7---|
D|--------7-7--2---------------------6------------------6-----5--0---------|
A|-5-5-5--5-5--0------------4-4-4-4--4------------------------------6------|
E|-------------------------------------------------------------------------|

Riff D (fast part, chorus maybe)

e|----------------------------------------------------------------------|
B|---9-9---------------------------------------7-7--5-5-5---------------|
G|---9-9----11-11-11-11------------------------7-7--5-5-5---------------|
D|---9-9----9--9--9--9-------------------------7-7--5-5-5---------------|
A|---7-7---------------------------------------5-5--3-3-3---------------|
E|-0-----0--11-11-11-11-0-0-0--0-0--0-0-0-0-0--------------0-0-0--0-0---|

e|-------------------------------------------------------------------------|
B|-------------------9-9---------------------------------------7-7--5-5-5--|
G|-5--5-5--5--5-5----9-9----11-11-11-11------------------------7-7--5-5-5--|
D|-3--3-3--3--3-3----9-9----9--9--9--9-------------------------7-7--5-5-5--|
A|-1--1-1--1--1-1----7-7---------------------------------------5-5--3-3-3--|
E|-----------------0-----0--11-11-11-11-0-0-0--0-0--0-0-0-0-0--------------|

e|-------------0--0-0--0-0--0--0--0--0-0--0-0--0--0--|
B|-------------0--0-0--0-0--0--0--0--0-0--0-0--0--0--|
G|-------------2--2-2--2-2--2--2--7--7-7--7-5--5--5--|
D|-------------2--2-2--2-2--2--2--7--7-7--7-5--5--5--|
A|-------------0--0-0--0-0--0--0--5--5-5--5-3--3--3--|
E|-0-0-0--0-0----------------------------------------|

Riff E

e|--------------------------------------|
B|--------------------------------------|
G|-7--7-7--7-7-7------------------------|
D|-5--5-5--5-5-5--7--7-7--7-7-7--3--2---|
A|-3--3-3--3-3-3--5--5-5--5-5-5--3--2---|
E|----------------3--3-3--3-3-3--1--0---|

Repeat Riff A 2x

Riff F 2x

e|-------------------------------------------------------------|
B|-------------------------------------------------------------|
G|-5-4-4--2-2-2-2-------2------5-4-4-4--2-2-2-2---------2------|
D|-5-4-4--4-4-4-4-------4------5-4-4-4--4-4-4-4---------4------|
A|-3-2-2--3-3-3-3-------3------3-2-2-2--3-3-3-3---------3------|
E|----------------0-0-0---0-0--------------------0-0-0----0-0--|

Riff G (right speaker guitar)
(exercise those fingers)

e|-----------------------------------|
B|-----------------------------------|
G|-----6-----7-----6--------6--------|  6x
D|---5-----5-----5-----5--------7----|
A|-6-----3-----5----------4----------|
E|-------------------3--------5------|

e|-----------------------------------|
B|-----------------------------------|
G|-----7-----8-----7--------7--------|  2x
D|---6-----6-----6-----6--------8----|
A|-7-----4-----6----------5----------|
E|-------------------4--------6------|

Riff G (left speaker guitar)
(breaks for first 4x)

e|-----------------------------------|
B|-----------------------------------|
G|-----8-----9-----8--------8--------|  2x
D|---7-----7-----7-----7--------9----|
A|-8-----5-----7----------6----------|
E|-------------------5--------7------|

e|-----------------------------------|
B|-----------------------------------|
G|-----6-----7-----6--------6--------|  2x
D|---5-----5-----5-----5--------7----|
A|-6-----3-----5----------4----------|
E|-------------------3--------5------|

Repeat D 2x
Repeat E once (minus last chord)

Riff H

e|-------------------------------------------------------------------------|
B|-------------------------------------------------------------------------|
G|-------------------------------------------------------------------------|
D|-------------------------------------------------------------------------|
A|------------5-5------------------5-5--------------5-5-5-5-------------5-5|
E|-0-0-0--0-0-----2-2--3-3--3-3-3-------2-2-2--2-2-----------1-1-1--1-1----|

e|-----------------------------------------|
B|-----------------------------------------|
G|-----------------------------------------|
D|-----------------------------------------|
A|------------5-5-----------------5-5-5-5--|
E|-0-0-0--0-0-----2-2--3-3--3-3-3----------|

Repeat Riff B 2x (last verse)
Repeat Riff A once (end)

============================================================================
Related for Paradigms tab