Song name
# A B C D E F G H I J K L M N O P Q R S T U V W X Y Z

Extreme Noise Terror - Deceived tab

Extreme Noise Terror - We The Helpless

Tabbed by: Kapteeni Haddoc

Tuning: E standard

Verse
E--------------|
B--------------|
G-----5--8--7--|
D--7--5--8--7--|
A--7--3--6--5--|
E--5-----------|

Chorus
E-----------|
B-----------|
G--8--7--5--|
D--8--7--5--|
A--6--5--3--|
E-----------|

From album a holocaust in your head
Tap to rate this tab
# A B C D E F G H I J K L M N O P Q R S T U V W X Y Z