Guitaretab - guitar tabs
Song name
# A B C D E F G H I J K L M N O P Q R S T U V W X Y Z

Extreme - Rest In Peace tab

e|----------------------------------------------------------------------9----|
b|----------15-14-14----------------------------12-15-14-14-17-\9~-10brb--10-|
g|-----13-16--------14-14-16brb-p14-16b--------14----------------------------|
d|14-15--------------------------------12-14-15------------------------------|
a|---------------------------------------------------------------------------|
e|---------------------------------------------------------------------------|
      p.mů
e|-----7/10-14-10-14-10-----15-10-15-10------14-10-14-10-----15-10-15-10------|
b|---9-----------------13-10-----------13-10------------13-10----------13-10--|
g|--9-------------------------------------------------------------------------|
d|-9--------------------------------------------------------------------------|
a|7---------------------------------------------------------------------------|
e|----------------------------------------------------------------------------|

[ Tab from: http://www.guitaretab.com/e/extreme/27748.html ]
e|-13-10---------------------------------------------------------------------|
b|------13-10h11p10--10h11p10--10h11h13p11p10-------------------------10-13~-|
g|-----------------13--------13--------------13p12p10--------10-10h12--------|
d|---------------------------------------------------12-10h12----------------|
a|---------------------------------------------------------------------------|
e|---------------------------------------------------------------------------|

e|----------------------------------12-13-15~-15-15br-13-12--13-15-12b-12----|
b|----12brb-12p10-12~-------13-15-17-------------------------------------13\-|
g|--10--------------12-14-16-------------------------------------------------|
d|12-------------------------------------------------------------------------|
a|---------------------------------------------------------------------------|
e|---------------------------------------------------------------------------|

e|---------------------------------------------12-13-15-15b-13-\12-13-15-12br-|
b|---13-15-15br-13-----------------15b-13-15-17----------------------------13-|
g|/14-------------13-15-13h15p13\12-------------------------------------------|
d|----------------------------------------------------------------------------|
a|----------------------------------------------------------------------------|
e|----------------------------------------------------------------------------|
Related for Rest In Peace tab