Song name
# A B C D E F G H I J K L M N O P Q R S T U V W X Y Z

Extremoduro - Bulerias De Sangre Caliente tab

e:-----------------------------------------------------|
B:-----------------------------------------------------|
G:-----------------------------------------------------|
D:---2--5--4---------7--5--4-------2--5--4------7--5---|
A:---2--3--4---------7--5--4-------2--3--4------7--5---|
E:---0--3--2---------5--3--2-------0--3--2------5--3---|


                                                           x2
e:-----------------------------------------------------|
B:-----------------------------------------------------|
G:-----------------------------------------------------|
D:---44444-222--555-4444--222--7--5--------------------|
A:---44444-222--555-4444--222--7--5--------------------|
E:---22222-000--333-2222--000--5--3--------------------|


                                                             x2
e:--------------------------------------------------------|
B:--------------------------------------------------------|
G:------------------------------------------------7---5---|
D:---999999999---77777---5----999999999---77777---7---5---|
A:---999999999---77777---3----999999999---77777---5---3---|
E:---777777777---55555---3----777777777---55555-----------|


    Soy trozos de lluvia y...
e:-----------------------------------------------------|
B:-----------------------------------------------------|
G:-----------------------------------------------------|
D:---44444-222--555-4444--222--7--5--------------------|
A:---44444-222--555-4444--222--7--5--------------------|
E:---22222-000--333-2222--000--5--3--------------------|


                                                         x2
e:---------------------------------------0-------------|
B:---------------------------------------0-------------|
G:---------------------------------------0-------------|
D:---4-4-4-4-x-x-x-4-4-4-x-x-x-x-x-x--5--2-------------|
A:---4-4-4-4-x-x-x-4-4-4-x-x-x-x-x-x--5--2-------------|
E:---2-2-2-2-x-x-x-2-2-2-x-x-x-x-x-x--3--0-------------|


   Cada maņana te miro...
e:------------------------0----------------------------|
B:------------------------0----------------------------|
G:------------------------0----------------------------|
D:---4---4---4---4----5---2----------------------------|
A:---4---4---4---4----5---2----------------------------|
E:---2---2---2---2----3---0----------------------------|

Luego se vuelve a repetir todo otra vez
Es muy facil
Tap to rate this tab
 
# A B C D E F G H I J K L M N O P Q R S T U V W X Y Z