Eye Alaska - I Knew Youd Never Fly tab

-------------------------------------------------------------------------------
			     I Knew You'd Never Fly - Eye Alaska
-------------------------------------------------------------------------------

For UG staff:
http://www.myspace.com/eyealaska
They're signed to Fearless Records


Anyway, first tab ever.....awesome song 




Intro (0:00-0:24)
Pick ad lib w/ delay
e|--------------------|
B|----8---------------|
G|----5-------5\------|
D|------------5\------|
A|--------------------|
E|--------------------|





Verse 1 (0:24-0:50)
These are all volume swells
e|---------------------------------------------------|
B|----------------------------------6---------8------|
G|----5---------8---------7--------------------------|
D|---------------------------------------------------| (x2)
A|---------------------------------------------------|
E|---------------------------------------------------|





Chorus 1

Guitar 1
e|---------------------------------------------------|
B|---------------------------------------------------|
G|----3/5--------------------------3-----------------|
D|----------5b--------3-----5------------------------|
A|---------------------------------------5b----------|
E|---------------------------------------------------|

e|-------------------/8------------------------------|
B|--------------------------8-----11-----------------|
G|----3/5--------------------------------10-----8----|
D|----------5b---------------------------------------| (x2)
A|---------------------------------------------------|
E|---------------------------------------------------|

Guitar 2
There's something in the background but I can't make it out...





Verse 2 (1:14-1:52)

Guitar 1
Play this once
e|---------------------------------------------------|
B|---------------------------------------------------|
G|---3/5--5--5--5--5--3/5--3/5--5--5--8p5--5--5------|
D|---------------------------------------------------|
A|---------------------------------------------------|
E|---------------------------------------------------|

e|---------------------------------------------------|
B|---------------------------------------------------|
G|---3/5--3/5--5--5--3/5--5--5--5--5--8p5--5--5------|
D|---------------------------------------------------|
A|---------------------------------------------------|
E|---------------------------------------------------|

e|---------------------------------------------------|
B|---------------------------------------------------|
G|---------------------------------------------------|
D|---3/5--5--5--5--5--3/5--3/5--5--5--8p5--5--5------|
A|---------------------------------------------------|
E|---------------------------------------------------|

e|---------------------------------------------------|
B|---------------------------------------------------|
G|----------------------------------5--8p5--8p5------|
D|---3/5--3/5--5--5--3/5--5--5--8--------------------|
A|---------------------------------------------------|
E|---------------------------------------------------|

Then this twice
e|---------------------------------------------------|
B|---------------------------------------------------|
G|---3/5--5--5--5--5--3/5--5--5--5--5--8p5--5--5-----|
D|---------------------------------------------------|
A|---------------------------------------------------|
E|---------------------------------------------------|

e|---------------------------------------------------|
B|---------------------------------------------------|
G|---3/5--5--5--5--5--3/5--5--5--5--5--8p5--5--5-----|
D|---------------------------------------------------|
A|---------------------------------------------------|
E|---------------------------------------------------|

e|---------------------------------------------------|
B|---------------------------------------------------|
G|---------------------------------------------------|
D|---3/5--5--5--5--5--3/5--5--5--5--5--8p5--5--5-----|
A|---------------------------------------------------|
E|---------------------------------------------------|

e|---------------------------------------------------|
B|---------------------------------------------------|
G|----------------------------------5--8p5--8p5------|
D|---3/5--5--5--5--5--3/5--5--5--8-------------------|
A|---------------------------------------------------|
E|---------------------------------------------------|


Guitar 2
e|---------------------------------------------------|
B|-------------------------------------11------------|
G|---7/8--8--8--8--8--7/8--8--8--8--8------8--8--8---|
D|---------------------------------------------------| (x11)
A|---------------------------------------------------|
E|---------------------------------------------------|

e|---------------------------------------------------|
B|---------------------------------------------------|
G|---5~----------------------------------------------|
D|---------------------------------------------------|
A|---------------------------------------------------|
E|---------------------------------------------------|





Chorus 2 (1:52-2:41)

Guitar 1
e|---------------------------------------------------|
B|---------------------------------------------------|
G|----3/5--------------------------3-----------------|
D|----------5b--------3-----5------------------------|
A|---------------------------------------5b----------|
E|---------------------------------------------------|

e|-------------------/8------------------------------|
B|--------------------------8-----11-----------------|
G|----3/5--------------------------------10-----8----|
D|----------5b---------------------------------------| (x4)
A|---------------------------------------------------|
E|---------------------------------------------------|

Guitar 2
Something I can't make out.....





Bridge (2:41-3:07)

Guitar 1
e|---------------------------------------------------|
B|---------------------------------------------------|
G|----3/5--5--5--5--5--5--5--5--5--5--5--5--5--5--5--|
D|---------------------------------------------------|
A|---------------------------------------------------|
E|---------------------------------------------------|

e|------------------------6--------------------------|
B|------------------------------------8--8--8--6-----|
G|---5--5--8--5--7--8--5-----5--8--5--------------8--|
D|---------------------------------------------------| 
A|---------------------------------------------------|
E|---------------------------------------------------|

e|------------------------6--------------------------|
B|---------------------------------------------------|
G|---5--5--8--5--7--8--5-----5--8--5--x--7b8r7-------|
D|---------------------------------------------------| 
A|---------------------------------------------------|
E|---------------------------------------------------|

e|---------------------------------------------------|
B|---------------------------------------------------|
G|---0--0--3--0--3--0--0--3--0--3--0--0--5b7r5-------|
D|---------------------------------------------------|
A|---------------------------------------------------|
E|---------------------------------------------------|
  
e|---------------------------6-----------8-----------|
B|---8-----------------------------------------------|
G|---------------------------------------------------|
D|--------[tremolo picking]--------------------------|
A|---------------------------------------------------|
E|---------------------------------------------------|


Guitar 2
e|---------------------------------------------------|
B|---------------------------------------------------|
G|---7--8--8--8--8--8--7--5--7--8--8--8--8--8--7--5--|
D|---------------------------------------------------|
A|---------------------------------------------------|
E|---------------------------------------------------|

Then guitar 2 stops (or I just can't hear it)





Chorus 3 (3:07-end)

Guitar 1
e|---------------------------------------------------|
B|---------------------------------------------------|
G|----3/5--------------------------3-----------------|
D|----------5b--------3-----5------------------------|
A|---------------------------------------5b----------|
E|---------------------------------------------------|

e|-------------------/8------------------------------|
B|--------------------------8-----11-----------------|
G|----3/5--------------------------------10-----8----|
D|----------5b---------------------------------------| (x2)
A|---------------------------------------------------|
E|---------------------------------------------------|

e|---------------------------------------------------|
B|---------------------------------------------------|
G|----3--------------/5------------------------------|
D|---------------------------------------------------|
A|---------------------------------------------------|
E|---------------------------------------------------|


Guitar 2
e|---------------------------------------------------|
B|---8b9r8-------------------------11----------------|
G|----------7---------5/7--8--10-----------10b11-----|
D|---------------------------------------------------|
A|---------------------------------------------------|
E|---------------------------------------------------|

e|---------------------------------------------------|
B|---8b9r8-------------------------------------------|
G|----------7---------7b8r7--------3--------5\-------|
D|---------------------------------------------------| (x2)
A|---------------------------------------------------|
E|---------------------------------------------------|


Then piano until the end. I actually might transcribe the piano parts in the song 
later if I get ambitious.

And any help on what the second guitar is playing during the first two choruses 
would be just fantastic :)

----------

Tabbed by: psychomonkey62
Tap to rate this tab
 
# A B C D E F G H I J K L M N O P Q R S T U V W X Y Z