Eye Alaska - Miles Dont Mean Anything chords

Highlighted       Show chord diagrams
Artist: Eye Alaska
Song: Miles Don't Mean Anything
Album: Genesis Underground
Released: 2009
Tabbed by: Vinh Nguyen

This is my first tab, but I personally think this sounds accurate.

Tips, advice, suggestions are all welcome.

Chords used:

    G  Cadd9 Em7  D(/F#)
e|--3----3----3----3----|
B|--3----3----3----3----|
G|--0----0----0----2----|
D|--0----2----2----0----|
A|--2----3----2----x----|
E|--3----x----0---(2)---|


Strum pattern for verses/fills/choruses:

e|---3---3---3---3---3---3---3---3---3---3---3---3---3---3---3---3---3---3---3---3---|
B|---3---3---3---3---3---3---3---3---3---3---3---3---3---3---3---3---3---3---3---3---|
G|---0---0---0---0---0---0---0---0---0---0---0---0---0---0---0---0---0---0---0---0---|
D|---0---0---0---0---0---0---0---0---0---0---0---0---0---0---0---0---0---0---0---0---|
A|---2---2---2---2---2---2---2---2---2---2---2---2---2---2---2---2---2---2---2---2---|
E|---3---3---3---3---3---3---3---3---3---3---3---3---3---3---3---3---3---3---3---3---|
     v   v   v   v   ^   v   ^   v   ^   v   v   v   v   v   ^   v   ^   v   ^   v

e|---3---3---3---3---3---3---3---3---3---3---3---3---3---3---3---3---3---3---3---3---|
B|---3---3---3---3---3---3---3---3---3---3---3---3---3---3---3---3---3---3---3---3---|
G|---0---0---0---0---0---0---0---0---0---0---0---0---0---0---0---0---0---0---0---0---|
D|---2---2---2---2---2---2---2---2---2---2---2---2---2---2---2---2---2---2---2---2---|
A|---3---3---3---3---3---3---3---3---3---3---3---3---3---3---3---3---3---3---3---3---|
E|---x---x---x---x---x---x---x---x---x---x---x---x---x---x---x---x---x---x---x---x---|
     v   v   v   v   ^   v   ^   v   ^   v   v   v   v   v   ^   v   ^   v   ^   v


e|---3---3---3---3---3---3---3---3---3---3---3---3---3---3---3---3---3---3---3---3---|
B|---3---3---3---3---3---3---3---3---3---3---3---3---3---3---3---3---3---3---3---3---|
G|---0---0---0---0---0---0---0---0---0---0---2---2---2---2---2---2---2---2---2---2---|
D|---2---2---2---2---2---2---2---2---2---2---0---0---0---0---0---0---0---0---0---0---|
A|---2---2---2---2---2---2---2---2---2---2---x---x---x---x---x---x---x---x---x---x---|
E|---0---0---0---0---0---0---0---0---0---0--(2)-(2)-(2)-(2)-(2)-(2)-(2)-(2)-(2)-(2)--|
     v   v   v   v   ^   v   ^   v   ^   v   v   v   v   v   ^   v   ^   v   ^   v

e|---3---3---3---3---3---3---3---3---3---3---3---3---3---3---3---3---3---3---3---3---|
B|---3---3---3---3---3---3---3---3---3---3---3---3---3---3---3---3---3---3---3---3---|
G|---0---0---0---0---0---0---0---0---0---0---0---0---0---0---0---0---0---0---0---0---|
D|---2---2---2---2---2---2---2---2---2---2---2---2---2---2---2---2---2---2---2---2---|
A|---3---3---3---3---3---3---3---3---3---3---3---3---3---3---3---3---3---3---3---3---|
E|---x---x---x---x---x---x---x---x---x---x---x---x---x---x---x---x---x---x---x---x---|
     v   v   v   v   ^   v   ^   v   ^   v   v   v   v   v   ^   v   ^   v   ^   v


Intro: (Strum each chord once)

                 G
'Cause when it rains, it pours in this town
           Cadd9
A little darkness closes in
                  Em7
When you're not around,
        D(/F#)              Cadd9
I hope somehow that you can feel me

'Cause miles don't mean anything


Fill: (Play once)

G - Cadd9 - Em7 - D(/F#) - Cadd9


Verse 1:

G
And I've been unable to push you away

Cadd9                       Em7                D(/F#)
But I'm able to understand life like the game we play

      Cadd9
You're not afraid of love

G
And I've been unable to get you away

Cadd9                                   Em7
To talk about the things I wish I could say

        D(/F#)
Do you know your worth?

Cadd9
'Cause everyday I pray for your words


Chorus:

G
'Cause when it rains, it pours in this town

Cadd9
A little darkness closes in

Em7
When you're not around,

        D(/F#)
I hope somehow that you can feel me

Cadd9
'Cause miles don't mean anything

G
More than time exists

Cadd9
Over the momentary fix

Em7
'Cause I've never felt so strong

      D(/F#)
Maybe I'm just wrong

    Cadd9
But I don't think so

And miles don't mean anything


Fill:
G - Cadd9 - Em7- D(/F#) - Cadd9
                 Miles don't mean anything


Pre-chorus-thingy: (Same as verses, except the first Cadd9 isn't played)

G
Late nights spent wondering

                          Em7
What I'm going to do with myself

                        D(/F#)              Cadd9
I'm always stuck inside my head or my heart

You stole my heart


Chorus:

G
'Cause when it rains, it pours in this town

Cadd9
A little darkness closes in

Em7
When you're not around,

        D(/F#)
I hope somehow that you can feel me

Cadd9
'Cause miles don't mean anything

G
More than time exists

Cadd9
Over the momentary fix

Em7
'Cause I've never felt so strong

      D(/F#)
Maybe I'm just wrong

    Cadd9
But I don't think so

And miles don't mean anything

(I like to end the song like this to kind of follow the strings, it's definitely not 
but you can try it)

e|--3----3----3----3----|
B|--3----3----3----3----|
G|--0----0----0----0----|
D|--2----2----2----2----|
A|--3----3----3----2----|
E|--x----x----x----0----|
    v    ^    v    ^
Tap to rate this tab
 
# A B C D E F G H I J K L M N O P Q R S T U V W X Y Z