Song name
# A B C D E F G H I J K L M N O P Q R S T U V W X Y Z

Eye Cue - Glowing Lips tab

 Eye Cue-Glowing Lips



Dm                                                   Dm  C  Bb
You gave me wings and I feel that I can conquer the sky

So many things that I never thought I'd do in my life

Just poor me drink and you'll see that I can conquer your sky

So many things that you never thought you'd do in your life

Em               C
Start living it, stop wondering why
Em               C
We are entering this game of mime
Em               C
We gonna make it no we wont fake it
Em                            C           Dm
Just come and take it Im your MDMA tonight

Dm      Gm               C
If you be there I will make you Ill make you go insane
Dm         Gm                   C                A
And if you let me just let me taste you,your lips will glow again
Dm               Gm               C
But please don't try to contemplate this cause youll make it fade away
Dm            Gm                 C             A                  Dm
And if you stay this time I'll make you I'll make you come again.

 |------------------------------------------------------|
 |------------------------------------------------------|
 |---------------------55555555-44444444----------------|
 |-0000-2222-3333-7777----------------------------------|
 |------------------------------------------------------|
 |------------------------------------------------------|


 |------------------------------------------------------|
 |------------------------------------------------------|
 |--5--7----5--7----9-9--9--10-10--10-------------------|
 |00-00-0000-00-0000-0-00-00--0--00--00-----------------|
 |------------------------------------------------------|
 |------------------------------------------------------|


 |------------------------------------------------------|
 |------------------------------------------------------|
 |---------------------55555555-44444444----------------|
 |-0000-2222-3333-7777----------------------------------|
 |------------------------------------------------------|
 |------------------------------------------------------|

 |------------------------------------------------------|
 |------------------------------------------------------|
 |--5--7----5--7----999999999999-1010101010101010101010-|
 |00-00-0000-00-0000------------------------------------|
 |------------------------------------------------------|
 |------------------------------------------------------|

 |--13-12----10-----------------------------------------|
 |--------13----10-13----10-----------------------------|
 |--------------------12------12b--10-------------------|    x2
 |0-----------------------------------------------------|
 |------------------------------------------------------|
 |------------------------------------------------------|



   If you be there I will make you Ill make you go insane
   And if you let me just let me taste you,your lips will glow again
   But please don't try to contemplate this cause youll make it fade away
   And if you stay this time I'll make you I'll make you come again.

 |-------0--------------5--------------0--------5-5-5-5-3-3----|
 |-----6---6----------5---5----------6---6------6-6-6-6-5-5----|
 |---7-------7------5-------5------7-------7----7-7-7-7-5-5----|   x4
 |-0-----------0--0-----------0--8-----------8--0-0-0-0-0-0----|
 |-------------------------------------------------------------|
 |-------------------------------------------------------------|

http://www.youtube.com/watch?v=Im7sbOmUuM0
Tap to rate this tab
 
# A B C D E F G H I J K L M N O P Q R S T U V W X Y Z