Song name
# A B C D E F G H I J K L M N O P Q R S T U V W X Y Z

Eye Empire - The War Isnt Over Yet tab

Eye Empire: The War Isn't Over Yet

Transcribed by: mysticguitar77

YouTube Channel: MysticGuitar77

Date last modified: January 17, 2014

Official band website: http://www.eyeempire.com

Tuning: Drop B (B,F#,B,E,G#,C#)

Riff 1
C#|------------------------------------------------------------|
G#|------------------------------------------------------------|
 E|------------------------------------------------------------|
 B|------------------------------------------------------------|
F#|------------------------------------------------------------|
 B|-0-0-6-6-6-6-0--6-6-6-6-6-0-6/7-0-0-6-6-6-6-0--6-6-6-6-6b-3-|

Play Riff 1 x4

Riff 2 (w/ phaser)   "Fighting for my life..."
C#|----------------------------------------------|
G#|----------------------------------------------|
 E|-7~-----------------7~--------10-10-10-10-10b-|
 B|-x----6~---3~-------x----6~---x--x--x--x--x---|
F#|-5~---6~---3~-------5~---6~---8--8--8--8--8b--|
 B|------6~---3~------------6~-------------------|

C#|----------------------------------------------|
G#|----------------------------------------------|
 E|-7~--------10b~-----7~------------------------|
 B|-x----6~---x--------x-----6~---3~-------------|
F#|-5~---6~---8b~------5~----6~---3~-------------|
 B|------6~------------------6~---3~-------------|

Riff 3   "War took a warm heart, left a cold one..."
C#|-----------------------------------------------|
G#|-----------------------------------------------|
 E|-----------------------------------------------|
 B|-----------------------------------------------|   x2
F#|-----------------------------------------------|
 B|-0-0-1110--1-0-0-3-0-3-5-0-0-1110--6-5-0-3-5-1-|
        ***                     ***

C#|-----------------------------------------------------|
G#|-----------------------------------------------------|
 E|-----------------------------------------------------|
 B|-----------------------------------------------------|
F#|-----------------------------------------------------|
 B|-1110-1110--310-310-310-6\-1110-1110--650-650-650-3b-|
    ***  ***   *** *** ***    ***  ***   *** *** ***

C#|--------------------------------------------------|
G#|--------------------------------------------------|
 E|--------------------------------------------------|
 B|--------------------------------------------------|
F#|--------------------------------------------------|
 B|-0-0-1110--1-0-0-3-0-3-5-0-0-1110--650-650-650-5b-|
        ***                     ***   *** *** ***

Play Riff 1 x2

Riff 4 (w/ phaser)   "Dreams of suicide, thinking it could free my mind..."
C#|---------------------|
G#|---------------------|
 E|-7~------------------|
 B|-x----6~---3~--------|   x3
F#|-5~---6~---3~--------|
 B|------6~---3~--------|

C#|----------------------------|
G#|----------------------------|
 E|-7~--------10-10-10-10-10b~-|
 B|-x----6~---x--x--x--x--x----|
F#|-5~---6~---8--8--8--8--8b~--|
 B|------6~--------------------|

Play Riff 3 x1   "War took a warm heart, left a cold one..."
Play Riff 1 x2   "It's just a game!!"

Fill 1
C#|-------------------------------------------------------------------|
G#|-------------------------------------------------------------------|
 E|-------------------------------------------------------------------|
 B|-6~---3~---1~------3--0~---------------------0~--------------------|
F#|-6~---3~---1~------3--0~---------------------0~--------------------|
 B|-6~---3~---1~------3--0~---------------------0~--------------------|

Riff 5
C#|------------------------------------------------|
G#|------------------------------------------------|
 E|---10\-------5b------13b----10\-----------------|
 B|---x---------x-------x------x---------5--6--x-3-|
F#|---8\\-------3b-6b---11b----8\\-------5--6--x-3-|
 B|-0-----3-2-0----6b-0------0-----3-2-0-5--6--x-3-|
    *                 *      *

C#|----------------------------------------------------------|
G#|----------------------------------------------------------|
 E|---10\-------13b------------------------------------------|
 B|---x---------x--------------------------------------------|
F#|---8\\-------11b----0-3-3---------------------------------|
 B|-0-----3-2-0-----0--0-3-3-6-6-6-6-6-6-6-6-9-9-9-9-5-5-5-5-|
    *    

Solo
C#|-/13-13-13-13-13-13-13-13-13-13-13-13\-|
G#|-/17-17-17-17-17-17-17-17-17-17-17-17\-|
 E|---------------------------------------|
 B|---------------------------------------|
F#|---------------------------------------|
 B|---------------------------------------|

C#|-/10--10--10--10--10--10--10--10--10--10\\-|
G#|-/13b-13b-13b-13b-13b-13b-13b-13b-13b-13b\-|
 E|-------------------------------------------|
 B|-------------------------------------------|
F#|-------------------------------------------|
 B|-------------------------------------------|

C#|-------------------------------------16-16-16-16-|
G#|-15-15-15-15-15-15-15-15-18-18-18-18-------------|
 E|-------------------------------------------------|
 B|-------------------------------------------------|
F#|-------------------------------------------------|
 B|-------------------------------------------------|

C#|----------------16-16-16-16-16-19-19-19-19-|
G#|-18-18-18-18-18----------------------------|
 E|-------------------------------------------|
 B|-------------------------------------------|
F#|-------------------------------------------|
 B|-------------------------------------------|

C#|-16----------------16h19p16----------16-19h22p19----------19-22b24~-|
G#|----18----------18----------18----18-------------21----21-----------|
 E|-------19-16-19----------------19-------------------22--------------|
 B|--------------------------------------------------------------------|
F#|--------------------------------------------------------------------|
 B|--------------------------------------------------------------------|

Play Riff 3 x1   "War took a warm heart, left a cold one..."
Play Riff 1 x2   "It's just a game!!"

Enjoy!!
Tap to rate this tab
# A B C D E F G H I J K L M N O P Q R S T U V W X Y Z