Song name
# A B C D E F G H I J K L M N O P Q R S T U V W X Y Z

Eye Empire - Rise Wake Up tab

Eye Empire: Rise (Wake Up)

Transcribed by: mysticguitar77

YouTube Username: MysticGuitar77

Date last modified: January 17, 2014

Official band website: http://www.eyeempire.com

Tuning: Drop A# (A#,F,A#,D#,G,C)

Riff 1
 C|----------------------------------------------|
 G|----------------------------------------------|
D#|----------------------------------------------|
A#|----------------------------------------------|
 F|----------------------------------------------|
A#|-0h1-1-1-1-1-4p1-1-1-1-1--1-1-1-1-1p0-0-0-0-0-|

 C|-----------------------------------------|
 G|-----------------------------------------|
D#|-----------------------------------------|
A#|-----------------------------------------|
 F|-----------------------------------------|
A#|-0h1-1-1-1-1-4p1-1-1-1-1--6b-6-4-6-4-1-4-|

 C|----------------------------------------------|
 G|----------------------------------------------|
D#|----------------------------------------------|
A#|----------------------------------------------|
 F|----------------------------------------------|
A#|-0h1-1-1-1-1-4p1-1-1-1-1--1-1-1-1-1p0-0-0-0-0-|

 C|----------------------------|
 G|----------------------------|
D#|----------------------------|
A#|----------------------------|
 F|--------------/6-4----------|
A#|-6b-6-4-6-4-1------6b-4-1-4-|

Riff 2   "You thought you owned me..."
 C|----------------------------------------------|
 G|----------------------------------------------|
D#|----------------------------------------------|
A#|----------------------------------------------|
 F|----------------------------------------------|
A#|-0h1-1-1-1-1-1-1-1-1-1-1--1-1-1-1-1p0-0-0-0-0-|
        * * * * * * * * * *  * * * *     * * * *

 C|-------------------------------------------|
 G|-------------------------------------------|
D#|-------------------------------------------|
A#|-------------------------------------------|
 F|-------------------------------------------|
A#|-0h1-1-1-1-1-1-1-1-1-1-1--1-1-1-1-7-6-4-6b-|
        * * * * * * * * * *  * * * * * * *

 C|----------------------------------------------|
 G|----------------------------------------------|
D#|----------------------------------------------|
A#|----------------------------------------------|
 F|----------------------------------------------|
A#|-0h1-1-1-1-1-1-1-1-1-1-1--1-1-1-1-1p0-0-0-0-0-|
        * * * * * * * * * *  * * * *     * * * *

 C|----------------------------------------|
 G|----------------------------------------|
D#|----------------------------------------|
A#|----------------------------------------|
 F|----------------------------------------|
A#|-0h1-1-1-1-1-1-1-1-1-1-1-6b-6-4-6-4-1-4-|
        * * * * * * * * * *

 C|----------------------------------------------|
 G|----------------------------------------------|
D#|----------------------------------------------|
A#|----------------------------------------------|
 F|----------------------------------------------|
A#|-0h1-1-1-1-1-1-1-1-1-1-1--1-1-1-1-1p0-0-0-0-0-|
        * * * * * * * * * *  * * * *     * * * *

 C|-------------------------------------------|
 G|-------------------------------------------|
D#|-------------------------------------------|
A#|-------------------------------------------|
 F|-------------------------------------------|
A#|-0h1-1-1-1-1-1-1-1-1-1-1--1-1-1-1-7-6-4-6b-|
        * * * * * * * * * *  * * * * * * *

 C|-------------------------------------------------------------------------|
 G|-------------------------------------------------------------------------|
D#|-------------------------------------------------------------------------|
A#|-------------------------------------------------------------------------|
 F|-----------------------------------------------------------/6-4----------|
A#|-0h1-1-1-1-1-1-1-1-1-1-1--1-1-1-1-1p0-0-0-0-0-6b-6-4-6-4-1------6b-4-1-4-|
        * * * * * * * * * *  * * * *     * * * *

Riff 3   "It's time to open our eyes..."
 C|-------------------------------|
 G|-------------------------------|
D#|-------------8--------------11-|
A#|-------------8--------------11-|
 F|-------------6--------------9--|
A#|-6-6-6-6-6-6-6--9-9-9-9-9-9-9--|

 C|----------------------------------------------|
 G|----------------------------------------------|
D#|----------------------------------------------|
A#|----------------------------------------------|
 F|----------------------------------------------|
A#|-0h1-1-1-1-1-4p1-1-1-1-1--1-1-1-1-1p0-0-0-0-0-|

 C|-------------------------------|
 G|-------------------------------|
D#|-------------8--------------11-|
A#|-------------8--------------11-|
 F|-------------6--------------9--|
A#|-6-6-6-6-6-6-6--9-9-9-9-9-9-9--|

Riff 4   "It's time to wake up..."
 C|--------------------------------|
 G|--------------------------------|
D#|-------------3--13-13--13-13-13-|
A#|-------------1--11-11--11-11-11-|
 F|-------------1--11-11--11-11-11-|
A#|-1-1-1-1-1-1-1--11-11--11-11-11-|

 C|-------------------------------------------------|
 G|-------------------------------------------------|
D#|-------------------------------------------------|
A#|-------------------------------------------------|
 F|-------------------------------------------------|
A#|-6-6-6-6-6-6-6-6-6-6-6-6-9-9-9-9-9-9-4-4-4-4-4-4-|

 C|--------------------------------|
 G|--------------------------------|
D#|-------------3--13-13--13-13-13-|
A#|-------------1--11-11--11-11-11-|
 F|-------------1--11-11--11-11-11-|
A#|-1-1-1-1-1-1-1--11-11--11-11-11-|

 C|------------------------------------------------|
 G|------------------------------------------------|
D#|------------------------------------------------|
A#|------------------------------------------------|
 F|------------------------------------------------|
A#|-6-6-6-6-6-6-6-6-6-6-6-6-9-9-9-9-9-9-9/11-11-11-|

Play Riff 1 x0.5   "It's time to rise..."
Play Riff 2 x1     "Though many came before us..."
Play Riff 3 x1     "It's time to open our eyes..."
Play Riff 4 x1     "It's time to wake up..."
Play Riff 1 x1     "It's time to rise..."

Riff 5 (solo rhythm)
 C|-------------------------------------------------------|
 G|-------------------------------------------------------|
D#|-------------------------------------------------------|
A#|-------------------------------------------------------|
 F|-------------------------------------------------------|
A#|-11-11-11-11-11-11-11-11-11-11-11-11-11-11-11-11-11-11-|

 C|----------------------------------------------|
 G|----------------------------------------------|
D#|----------------------------------------------|
A#|----------------------------------------------|
 F|----------------------------------------------|
A#|-0h1-1-1-1-1-4p1-1-1-1-1--1-1-1-1-1-1-1-1-1-1-|

 C|-------------------------------------------------------|
 G|-------------------------------------------------------|
D#|-------------------------------------------------------|
A#|-------------------------------------------------------|
 F|-------------------------------------------------------|
A#|-11-11-11-11-11-11-11-11-11-11-11-11-11-11-11-11-11-11-|

 C|------------------------------------------|
 G|------------------------------------------|
D#|------------------------------------------|
A#|------------------------------------------|
 F|------------------------------------------|
A#|-0h1-1-1-1-1-4p1-1-1-1-1--1-1-1-1-1-1-1-1-|

 C|-------------------------------------------------------|
 G|-------------------------------------------------------|
D#|-------------------------------------------------------|
A#|-------------------------------------------------------|
 F|-------------------------------------------------------|
A#|-11-11-11-11-11-11-11-11-11-11-11-11-11-11-11-11-11-11-|

 C|-------------------------------------------------|
 G|-------------------------------------------------|
D#|-------------------------------------------------|
A#|-------------------------------------------------|
 F|-------------------------------------------------|
A#|-9-9-9-9-9-9-9-9-9-9-9-9-6-6-6-6-6-6-4-4-4-4-4-4-|

Fill 1
 C|----------------------------------------------|
 G|----------------------------------------------|
D#|----------------------------------------------|
A#|-0h1-1-1-1-1-4p1-1-1-1-1--1-1-1-1-1p0-0-0-0-0-|
 F|----------------------------------------------|
A#|----------------------------------------------|
    * * * * * * * * * * * *  * * * * * * * * * *

Play Riff 4 x2   "It's time to wake up..."
Play Riff 1 x1   "It's time to rise..."

Ending
 C|------------------------|
 G|------------------------|
D#|------------------------|
A#|-1~---------------------|
 F|-1~---------------------|
A#|-1~---------------------|

Enjoy!!
Tap to rate this tab
 
# A B C D E F G H I J K L M N O P Q R S T U V W X Y Z