Song name
# A B C D E F G H I J K L M N O P Q R S T U V W X Y Z

Eyeball Skeleton - Cyclops Girl tab

this is a song i havent seen any tabs on so i did it myself
standard tuning, all power chords

verse-
----------------------------------------------------------------------|
----------------------------------------------------------------------|
----------------------------------------------------------------------|
-----------------44---------------------------------------------------|
8-44-55-33--8-44-22-3333----------------------------------------------|
6-22-33-11--6-22----1111----------------------------------------------|


chorus-
----------------------------------------------------------------------|
----------------------------------------------------------------------|
----------------------------------------------------------------------|
------------------------666-------------------------------------------|
88-6666-88-6666-88-6666-444-66----------------------------------------|
66-4444-66-4444-66-4444-----44----------------------------------------|


i couldnt figure out how many times to play each one so you'll have to figure that one 
yourself.

the order is

verse

chorus

verse

chorus

four beat break

verse

chorus for the rest of the song

thats pretty much it. this was my first tab so i hope its good. i really just wanted to 
some eyeball skeleton tabs so here one is.

the website for this band is-http://eyeballskeleton.com/ theyre relatively unheard of 
its two kids and thier dad but they are signed with my pal jesus records.
Tap to rate this tab
# A B C D E F G H I J K L M N O P Q R S T U V W X Y Z