Song name
# A B C D E F G H I J K L M N O P Q R S T U V W X Y Z

Eyeball Skeleton - Smokey Turtle tab

Title: 		The Smoky Turtle
Band: 		Eyeball Skeleton
Album:		#1
Transcribed By:	me man!
Parts:		verse and chorus and fill bridge thing


verse
E|-----------------------------------------------------------|
B|-----------------------------------------------------------|
G|-----------------------------------------------------------|
D|-----------------------------------------------------------|
A|88-44-11-11-33---------------------------------------------|
E|66-22-9--9--11---------------------------------------------|


chorus P.S.- the 11's are elevens not two ones
E|-----------------------------------------------------------|
B|-----------------------------------------------------------|
G|-----------------------------------------------------------|
D|-----------------------------------------------------------|
A|88-44-11-11-11-11-4444-6666--------------------------------|
E|66-22-9--9--9--9--2222-4444--------------------------------|

fill bridgey thing (play with alot of intensity)
E|-----------------------------------------------------------|
B|-----------------------------------------------------------|
G|-----------------------------------------------------------|
D|---66------------------------------------------------------|
A|88-44-66---------------------------------------------------|
E|66----44---------------------------------------------------|


thats about it. i dont know how many times to play each one but there order is:
intro


verse

chorus

verse

chorus


two measure break


fill bridgey thing


the kids just screaming smoky turtle for a measure


chorus


for the intro and the ending with the bass you can just play this
(x means mute)

E|-----------------------------------------------------------|
B|-----------------------------------------------------------|
G|-----------------------------------------------------------|
D|-----------------------------------------------------------|
A|x-x--x-x---------------------------------------------------|
E|-x-x--x-x--------------------------------------------------|


there you are! the song about the smokey turtle, he was so smokey, when he came around 
people chokey chokey!
Tap to rate this tab
# A B C D E F G H I J K L M N O P Q R S T U V W X Y Z