Guitaretab - guitar tabs
Song name
# A B C D E F G H I J K L M N O P Q R S T U V W X Y Z

Eyehategod - Who Gave Her The Roses tab

Artist: EyeHateGod
Title: Who Gave Her The Roses
Album: Take As Needed For Pain (Remastered) (2006)
Label: Century Media Records

Fully tabbed by Goad.
For questions or whatever, just leave a comment.

Extremely easy song to play!
(Title does not have a question mark!)

/  = slide up to lower note
\  = slide down to lower note
hb = bend half step (half bend)
.  = palm mute

Dropped C Tuning  4/4 Time

==========
INTRO:
D|------------------|-------------------|
A|------------------|-------------------|
F|-----(bass)-------|-------------------|
C|------(+)---------|-------------------|
G|---(feedback)-----|-------/11hb---\---|
C|------------------|-------------------|

RIFF 1
D|--------------------------------------|
A|--------------------------------------|
F|--------------------------------------|
C|--------------------------------------|
G|---------3---2----1-------------------| x3
C|-5---4---------------4--3--2--0--2--0-|
[ Tab from: http://www.guitaretab.com/e/eyehategod/109634.html ]
D|--------------------------------------|
A|--------------------------------------|
F|--------------------------------------|
C|--------------------------------------|
G|---------3---2----1-------------------|
C|-5---4---------------4--3--2--0--2----|

RIFF 2
D|--------------------------------------|
A|--------------------------------------|
F|--------------------------------------|
C|-0--0-0-0-0-0-0-0---------------------|
G|-0--0-0-0-0-0-0-0--1------------------| x3
C|-0--0-0-0-0-0-0-0-----4--3--2--0--2---|
      . . . . . . .

D|---------------------------------------|
A|---------------------------------------|
F|---------------------------------------|
C|-0--0-0-0-0-0-0-0----------------------|
G|-0--0-0-0-0-0-0-0--1-------------------|
C|-0--0-0-0-0-0-0-0-----4--3--2--0--2--0-|
      . . . . . . .

Repeat RIFF 1, then:

OUTRO:
D|---------------------------|
A|---------------------------|
F|---------------------------|
C|-0--0-0-0-0-0-0-0----------| it abruptly ends here
G|-0--0-0-0-0-0-0-0--1-------|
C|-0--0-0-0-0-0-0-0-----4--3-|
      . . . . . . .

THE END!
Related for Who Gave Her The Roses tab