Guitaretab - guitar tabs
Song name
# A B C D E F G H I J K L M N O P Q R S T U V W X Y Z

Eyehategod - Serving Time In The Middle Of Nowhere tab

Artist: EyeHateGod
Title: Serving Time In The Middle Of Nowhere
Album: Take As Needed For Pain (Remastered) (2006)
Label: Century Media Records

Fully tabbed by Goad.
For questions or whatever, just leave a comment.

/ = slide up to higher note
\ = slide down to lower note
. = palm mute
* = natural harmonics
b = bend
r = release bend
~ = vibrato

Dropped D Tuning  4/4 Time

==========
INTRO:
e|--------------------------|--------------------------|
B|--------------------------|--------------------------|
G|--(drums)-----------------|--------------------------|
D|---------------(feedback)-|--------------------------|
A|--------------------------|--------------------------|
D|--------------------------|-----------------12\------|

e|--------------------------|--------------------------|
B|--------------------------|--------------------------|
G|--------------------------|--------------------------|
D|--------------------------|--------------------------|
A|--------------------------|--------------------------| x2
D|-0-0-3-0-3-5--0-0-3-0-3-2-|-0-0-3-0-3-5------7---6---|

e|--------------------------|--------------------------|
B|--------------------------|--------------------------|
G|--------------------------|--------------------------|
D|-0-0-3-0-3-5--0-0-3-0-3-2-|-0-0-3-0-3-5------7---6---|
A|-0-0-3-0-3-5--0-0-3-0-3-2-|-0-0-3-0-3-5------7---6---| x2
D|-0-0-3-0-3-5--0-0-3-0-3-2-|-0-0-3-0-3-5------7---6---|


VERSE:
e|--------------------------|---------------------------|
B|--------------------------|---------------------------|
G|--------------------------|---------------------------|
D|-3---5---0----0--0--0-----|-3---5--3------0--0--0-0-0-|
A|-3---5---0----0--0--0-----|-3---5--3------0--0--0-0-0-|
D|-3---5---0----0--0--0-----|-3---5--35br--0--0--0-0-0-|
                .  .  .                     .  .  . . .
[ Tab from: http://www.guitaretab.com/e/eyehategod/109636.html ]
                            |1.2.3.
e|--------------------------|---------------------------|
B|--------------------------|---------------------------|
G|--------------------------|---------------------------|
D|-3---5---0----------------|-7---6---0-0-0-0--2--3---0-|
A|-3---5---0----------------|-7---6---0-0-0-0--2--3---0-|
D|-3---5---0----3333-3333---|-7---6---0-0-0-0--2--3---0-|
                **** ****             . . . .
                            |4. (1:11)
                            |----------------------------|
                            |----------------------------|
                            |----------------------------|
                            |-7---6---0-0-0-0--2--3------|
                            |-7---6---0-0-0-0--2--3-hold-|
                            |-7---6---0-0-0-0--2--3------|
                                      . . . .

BREAK: (drums, bass, & feedback)
e|--------------------------|--------------------------|
B|--------------------------|--------------------------|
G|--------------------------|--------------------------|
D|--------------------------|--------------------------|
A|--------------------------|--------------------------|
D|--------------------------|--------------------------|

e|--------------------------|--------------------------|
B|--------------------------|--------------------------|
G|--------------------------|--------------------------|
D|--------------------------|--------------------------|
A|--------------------------|------------/9~~~---------|
D|--------------------------|--------------------------|
                                              mess around with it here


BRIDGE: (1:31) -- repeat x3
e|-----------------------------|----------------------|
B|-----------------------------|----------------------|
G|-----------------------------|----------------------|
D|-----------------------------|------------0000-0000-|
A|-----------------------------|------------0000-0000-| x2
D|-3-5-3-5-0---0-0-8--5--3-3-5-|-3-5-3-5-0--0000-0000-|
                                            .... ....

e|-------------------------------------------------|
B|-------------------------------------------------|
G|-------------------------------------------------|
D|-8--8-8--10-10--10-10---11--10--8--5---0-3-0-3-5-|
A|-8--8-8--10-10--10-10---11--10--8--5---0-3-0-3-5-|
D|-8--8-8--10-10--10-10---11--10--8--5---0-3-0-3-5-|

e|---------------------------------------------------------|
B|---------------------------------------------------------|
G|---------------------------------------------------------|
D|-8--8-8--10-10--10-10---10--9--8--5----------------------|
A|-8--8-8--10-10--10-10---10--9--8--5--hold----------------|
D|-8--8-8--10-10--10-10---10--9--8--5--------(5)---12\-----|
                                               () = only play on 1st repetition

Repeat VERSE x2 (instead of 4)


*End of 2nd repetition of VERSE: (3:01)
e|--------------------------|------------------------------|
B|--------------------------|------------------------------|
G|--------------------------|------------------------------|
D|-3---5---0----------------|-7---6---0-0-0-0--2--3--------|
A|-3---5---0----------------|-7---6---0-0-0-0--2--3--hold--|
D|-3---5---0----3333-3333---|-7---6---0-0-0-0--2--3--------|
                **** ****             . . . .

e|--------------------------|
B|--------------------------|
G|--------------------------|
D|-0------------------------|  THE
A|-0--let ring--------------|  END!
D|-0------------------------|
Related for Serving Time In The Middle Of Nowhere tab