Song name
# A B C D E F G H I J K L M N O P Q R S T U V W X Y Z

Eyehategod - Age Of Bootcamps tab

This is my first tab, so bare with me.  There doesn't seem to be any tabs for Preaching 
End-Time Message, so i sat down and tried my best to figure a few songs out.  If anyone 
any corrections or more EHG tabs, feel free to email me at joshhh318@gmail.com

Opening Riff
E |-----------------------------------------------------|
B |-----------------------------------------------------|
G |-----------------------------------------------------|
D |-----------------------------------------------------|
A |5-5-------------------10-0--10--5-6--3-5-5-3-5---30-|
E |5-5-0-000-00-12-10-12-10-0--10--5-6--3-5-5-3-5---30-|


1:40
E |-----------------------------------|
B |-----------------------------------|
G |-----------------------------------|
D |-----------------------------------|
A |--6--6-5--5-----0--3---------------|
E |--6--6-5--5-----0--3--5-6-6-5------|

weird bluesy riff
E |-------------------------|
B |-------------------------|
G |-------------------------|
D |-------------------------|
A |--6-6--5--5--------------|
E |--6-6--5--5--6-5-3-0-----|
Tap to rate this tab
# A B C D E F G H I J K L M N O P Q R S T U V W X Y Z