Guitaretab - guitar tabs
Song name
# A B C D E F G H I J K L M N O P Q R S T U V W X Y Z

Eyehategod - Take As Needed For Pain tab

EYEHATEGOD - Take As Needed For Pain

by: Farine (mikko1@espoolainen.com)

Drop C
intro: feedback

riff1
|----------------------------------|
|----------------------------------|
|----------------------------------|
|----------------------------------|
|--0--0--6-5-3--0-0-3-5-0--3-5-3---|
|--0--0--6-5-3--0-0-3-5-0--3-5-3---|

riff2
|----------------------------------|
|----------------------------------|
|----------------------------------|
|----------------------------------|
|--6-6-6--9-8---4-3-1--------------|
|--6-6-6--9-8---4-3-1--------------|

riff3
|----------------------------------|
|----------------------------------|
|----------------------------------|
|----------------------------------|
|-0--3--0-2-3--0-3-0-0-4-3-1-------|
|-0--3--0-2-3--0-3-0-0-4-3-1-------|

messing around with riff 4 before riff 4
[ Tab from: http://www.guitaretab.com/e/eyehategod/75832.html ]
riff4
|----------------------------------|
|----------------------------------|
|----------------------------------|
|----------------------------------|
|-0-3-000--0-0-3-000--10h12-10--5--|
|-0-3-000--0-0-3-000--10h12-10--5--|
    pm...      pm...
riff5a
|----------------------------------|
|----------------------------------|
|----------------------------------|
|----------------------------------|
|-3-5-5-5-5--5---5---0-------------|
|-3-5-5-5-5--5---5---0-------------|

riff5b
|----------------------------------|
|----------------------------------|
|----------------------------------|
|----------------------------------|
|--3-5-5-5-5--5-5555555555555-3----|
|--3-5-5-5-5--5-5555555555555-3----|
             pm .............

riff6
|----------------------------------|
|----------------------------------|
|----------------------------------|
|----------------------------------|
|-0-----0---0---0---0---0-3b-------|
|-0-----0---0---0---0---0-3b-------|
     pm .   .   .   .   .

riff7a (play riffs 7 very loosely and feel the groove)
|----------------------------------|
|----------------------------------|
|----------------------------------|
|----------------------------------|
|-0--3--0-3-5-3--------------------|
|-0--3--0-3-5-3---/17--------------|

riff7b
|----------------------------------|
|----------------------------------|
|----------------------------------|
|----------------------------------|
|-0--3--0-3-5h3--7-6-5--0-3b-------|
|-0--3--0-3-5h3--7-6-5--0-3b-------|

The rest is just riffs 5-7 all over again.

That's it. Have fun and rock like sludge.

-Mikko
Related for Take As Needed For Pain tab