Song name
# A B C D E F G H I J K L M N O P Q R S T U V W X Y Z

Eyes Of Eden - Pictures tab

Tabber: James Fleming
Date: 3/21/2010

Hey guitarists. This is my first ever tab, the solo for "Pictures" by Eyes of Eden, from
album Faith. It's a really great band, and you should check them out
For anyone who likes Lacuna Coil, Sentenced, Moonspell, or Tristania, the producer of 
records is the guitarist for this band.

b = bend (e.g. 13b15 = bend up to 15 from 13)
h = hammer on
p = pull off
/ = slide (e.g. 8/11 = play 8 and slide up to 11)
~ = vibrato
~~ = hold

e---------------------------------------------------------------------------|
b---8--11--8--10---------8~~--------10----10b11------10-8~~-----------------|
g-----------------10--7-------------------------10~~---------7-7~~----------|
d---------------------------------------------------------------------------|
a---------------------------------------------------------------------------|
e---------------------------------------------------------------------------|

e---------------------------------------------------------------------------|
b-----------------------------10b11~----------------------------------------|
g---7h8p7-5---5h7h8~~----------------------7~~7-----------5~~--7/0----------|
d-----------8------------8--------------5--------5--7--8------------5--7--8-|
a---------------------------------------------------------------------------|
e---------------------------------------------------------------------------|

e-----------------------10--------------------------------------------------|
b--------8-----8/11--8------11--13~~b15--13-15-13b15-11-13-8-11-8----8/0----|
g--7--------7-----------------------------------------------------10--------|
d-----8---------------------------------------------------------------------|
a---------------------------------------------------------------------------|
e---------------------------------------------------------------------------|

Note: 13~~b15 means you play and hold 13 for a few beats, then bend to 15.

Listen to the song at http://www.youtube.com/watch?v=STU2UgJttjE, or itunes or wherever
listen to it. The solo starts at 2:53 into the song.

Thanks for viewing the tab, and keep rocking on!

~James
Tap to rate this tab
# A B C D E F G H I J K L M N O P Q R S T U V W X Y Z