Guitaretab - guitar tabs
Song name
# A B C D E F G H I J K L M N O P Q R S T U V W X Y Z

Eyes Set To Kill - Beauty Through Broken Glass tab

INTRO: 
    Bm          D           A           G
E-----------|-----------|-----------|-----------|
B-----------|-----------|-----------|-----------|
G--4-4-4-4--|--7-7-7-7--|-----------|----4------|
D--4-4-4-4--|--7-7-7-7--|--7-7-7-7--|--5-5-5-5-|
A--2-5-4-5--|--5-5-4-5--|--7-4-5-7--|--5-5-5-4--|
E-----------|-----------|--5-5-5-5--|--3-3-3-3--|


VERSE 1:
    Bm          D           A           G
E-----------|-----------|-----------|-----------|
B-----------|-----------|-----------|-----------|
G--4-4-4-4--|--7-7-7-7--|-----------|----4------|
D--4-4-4-4--|--7-7-7-7--|--7-7-7-7--|--5-5-5-5-|
A--2-5-4-5--|--5-5-4-5--|--7-4-5-7--|--5-5-5-4--|
E-----------|-----------|--5-5-5-5--|--3-3-3-3--|

    Bm          D           A           G
E-----------|-----------|-----------|-------------------|
B-----------|-----------|-----------|-------------------|
G--4-4-4-4--|--7-7-7-7--|-----------|-------------------|
D--4-4-4-4--|--7-7-7-7--|--7-7-7-7--|--5-5-5---5-5-5-5--|
A--2-5-4-5--|--5-5-4-5--|--7-4-5-7--|--5-5-5---5-5-5-4--|
E-----------|-----------|--5-5-5-5--|--3-3-3---3-3-3-3--|


CHORUS:
   Bm      F#      G
E-------|-------|-----------|
B----3--|-------|-----------|
G--4-4--|----3--|----4------|2x
D--4-4--|--4-4--|--5-5-5-5--|
A--2-2--|--4-4--|--5-5-5-4--|
E-------|--2-2--|--3-3-3-3--|

   Bm      F#      G
E-------|-------|-------------|
B----3--|-------|-------------|
G--4-4--|----3--|-------------|
D--4-4--|--4-4--|--5-5-5-5-5--|
A--2-2--|--4-4--|--5-5-5-5-5--|
E-------|--2-2--|--3-3-3-3-3--|


SOLO:
     Bm                    D                     A                   G
E-------2------------|--------2------------|---------------------|->
B-------3---2/3-2p0--|------2-3---2-----2--|-------2-------------|->
G----4---------------|----4--------4p0-0---|--4---2---4-2p0-2-4--|->
D-4-----------------|--4------------------|---2-2---------------|->
A--------------------|---------------------|---------------------|->
E--------------------|---------------------|---------------------|->

>--------------|
>--------3--0--|
>--2--2--------|
>--5--5-------|
>--------------|
>--------------|


VERSE 2:
     Bm           D            A            G
E------------|------------|------------|------------|
B----33--33--|----77--77--|------------|------------|
G--4-444-44--|--7-777-77--|----66--66--|----44-44--|
D--4-444-44--|--7-777-77--|--7-777-77--|--5-555-55-|
A--2-222-22--|--5-555-55--|--7-777-77--|--5-555-55--|
E------------|------------|--5-555-55--|--3-333-33--|
[ Tab from: http://www.guitaretab.com/e/eyes-set-to-kill/104905.html ]
     Bm           D            A            G
E------------|------------|------------|-------------------|
B----33--33--|----77--77--|------------|-------------------|
G--4-444-44--|--7-777-77--|----66--66--|----44-----44-----|
D--4-444-44--|--7-777-77--|--7-777-77--|--5-555---5-555-5-|
A--2-222-22--|--5-555-55--|--7-777-77--|--5-555---5-555-4--|
E------------|------------|--5-555-55--|--3-333---3-333-3--|


CHORUS:
   Bm      F#      G
E-------|-------|-----------|
B----3--|-------|-----------|
G--4-4--|----3--|----4------|2x
D--4-4--|--4-4--|--5-5-5-5--|
A--2-2--|--4-4--|--5-5-5-4--|
E-------|--2-2--|--3-3-3-3--|

   Bm      F#      G
E-------|-------|-------------------|
B----3--|-------|-------------------|
G--4-4--|----3--|----4---4---4------|
D--4-4--|--4-4--|--5-5-5-5-5-5-5-5--|
A--2-2--|--4-4--|--5-5-5-5-5-5-5-4--|
E-------|--2-2--|--3-3-3-3-3-3-3-3--|

   Bm      F#      G
E-------|-------|-----------|
B----3--|-------|-----------|
G--4-4--|----3--|----4------|2x
D--4-4--|--4-4--|--5-5-5-5--|
A--2-2--|--4-4--|--5-5-5-4--|
E-------|--2-2--|--3-3-3-3--|

   Bm      F#      G
E-------|-------|-------------|
B----3--|-------|-------------|
G--4-4--|----3--|----4---4----|
D--4-4--|--4-4--|--5-5-5-5-5--|
A--2-2--|--4-4--|--5-5-5-5-5--|
E-------|--2-2--|--3-3-3-3-3--|


OUTRO:
     Bm                    D                     A 
E-------2------------|---------------------|---------------------|->
B-------3---2/3-2p0--|-----2-0-------------|------3-2------------|->
G-----4--------------|----2-----4-2p0-2-4--|--2--2----4-2p0-2-4--|->
D-4-4---------------|--2------------------|---2-----------------|->
A--------------------|---------------------|---------------------|->
E--------------------|---------------------|---------------------|->
     G
>----------------------|
>--------3-------------|
>--2--2-----4-2p0-2-4--|
>--5--5---------------|
>----------------------|
>----------------------|

     Bm                    D                     A 
E-------2------------|---------------------|---------------------|->
B-------3---2/3-2p0--|-----2-0-------------|------3-2------------|->
G-----4--------------|----2-----4-2p0-2-4--|--2--2----4-2p0-2-4--|->
D-4-4---------------|--2------------------|---2-----------------|->
A--------------------|---------------------|---------------------|->
E--------------------|---------------------|---------------------|->
     G
>------------2---------|
>------3-0---0---------|
>--2--2----------------|
>--5------------------|
>----------------------|
>----------------------|
Related for Beauty Through Broken Glass tab