Guitaretab - guitar tabs
Song name
# A B C D E F G H I J K L M N O P Q R S T U V W X Y Z

Eyes Set To Kill - Give You My All tab

Artist: Eyes Set To Kill
Song: Give You My All
Album: Reach

This is my first tab, sow i hope this is ok :D 

D* 1e----2----|
   2B----3----|
   3G----2----|

D e----------|
  B--3-------|
  G--2-------|
  D--0-------|
  A--0-------|
  E----------|



Intro:

D-D*-D-D*-D-D*-A-G

Verse 1

D     D*     D     D*  D          D*
Glass hailed from the sky that night
A                G
I couldn't hide to save my life
D     D* D            D        D*
Standing drenched in open wounds
A                G                   G
You took my hand and pulled me through

Chorus
               Bm           F#m           G
I want to give you everything I'll give you my all
Bm          F#m  G                     Bm     F#m   G
Because you gave me, you gave me your lips a gentle kiss
                    Bbm(not sure)
The medicine to cure my pain

Guitar Arpeggios.
            
e----2------------------------2-----------------|
B---3----2/3-3\2-2/3-3\2-----3---2/3-3\2-2/3-3\2|
G--2--2---------------------2--2----------------|
D-0------------------------0--------------------|
A-----------------------------------------------|
E-----------------------------------------------|
[ Tab from: http://www.guitaretab.com/e/eyes-set-to-kill/105847.html ]
e----------------------------3--3---------------|
B----2----0-------0---------0---0---------------|
G---2------2--------2---------------------------|
D--2----2---2---2----2----0---------------------|
A-0---------------------------------------------|
E------------------------3----------------------|

Verse 2
D    D*    D    D*     D     D*
Listen to all of this glass shatter
A                  G
It pierced my eyes and made them bleed
D    D*    D    D*     D     
Now it sounds so beautiful, 
A         G                         G
cause your beautiful your beautiful

Chorus
               Bm           F#m           G
I want to give you everything I'll give you my all
Bm          F#m   G                    Bm     F#m   G
Because you gave me, you gave me your lips a gentle kiss
                    Bbm(not sure)        G
The medicine to cure my pain

Repeat Chorus(piano)
              Bm           F#m           G
I want to give you everything I'll give you my all
Bm          F#m   G                    Bm     F#m   G
Because you gave me, you gave me your lips a gentle kiss
                    Bbm(not sure)
The medicine to cure my pain

Outro
e----2-------------------|
B---3----2/3-3\2-2/3-3\2-|
G--2--2------------------|
D-0----------------------|
A------------------------|
E------------------------|

e----------------------------3--3---------------|
B----2----0-------0---------0---0---------------|
G---2------2--------2---------------------------|
D--2----2---2---2----2----0---------------------|
A-0---------------------------------------------|
E------------------------3----------------------|

Related for Give You My All tab
Advertisement will be closed in 10 seconds