Guitaretab - guitar tabs
Song name
# A B C D E F G H I J K L M N O P Q R S T U V W X Y Z

Eyes Set To Kill - Violent Kiss tab

E|-----------------------------------------|
B|-----------------------------------------| x2
G|---10101010101010101010---------99999999-|
D|-0-x-x-x-x-x-x-x-x-x-x--8-88888-xxxxxxxx-|
A|-0-8-8-8-8-8-8-8-8-8-8--8-88888-77777777-|
D|-0----------------------8-88888----------|

E|------------------------------------------------|
B|------------------------------------------------| x2
G|------------------------------------------------|
D|-0---------------0-------------8888888888888888-|
A|-0---8---7h8p7---0---8---7h8p7-8888888888888888-|
D|-0-0---0-------0-0-0---0-------8888888888888888-|
pm   *   *       *   *   *

E|------------------------------------------------------------|-----|
B|------------------------------------------------------------|     |
G|------------------------------------------------------------|     |
D|-----------------10-10-8-7h8--8-----------------------------|     |
A|---8---7h8p7-5h7--------------8---8---7h8p7-5h7-10-10-8-7h8-|     |
D|-0---0-------------0--0-0-----8-8---0-------------0--0-0----|     |
pm *   *             *  * *       *		    *  * *	    | x2
								    |
E|-------------------------------------------------|                |
B|-------------------------------------------------|                |
G|-------------------------------------------------|                |
D|-----------------10-10-8-7--88-------1010----10~-|                |
A|---8---7h8p7-5h7------------88888888-1010101010~-|                |
D|-0---0-------------0--0-0---88888888-1010101010~-|----------------|
pm *   *             *  * *     ******     * *

E|------------------------------------------------------------|
B|------------------------------------------------------------|
G|-10101010101010101010101010101010-1414141414141414-99999999-|
D|-x-x-x-x-x-x-x-x-x-x-x-x-x-x-x-x--x-x-x-x-x-x-x-x--xxxxxxxx-|
A|-8-8-8-8-8-8-8-8-8-8-8-8-8-8-8-8--1212121212121212-77777777-|
D|------------------------------------------------------------|

E|------------------------------------------------------------|
B|------------------------------------------------------------|
G|-10101010101010101010101010101010-1414141717171717-99999999-|
D|-x-x-x-x-x-x-x-x-x-x-x-x-x-x-x-x--x-x-x-x-x-x-x-x--xxxxxxxx-|
A|-8-8-8-8-8-8-8-8-8-8-8-8-8-8-8-8--1212121515151515-77777777-|
D|------------------------------------------------------------|

E|------------------------------------------------------------|
B|------------------------------------------------------------|
G|-10101010101010101010101010101010-1414141414141414-99999999-|
D|-x-x-x-x-x-x-x-x-x-x-x-x-x-x-x-x--x-x-x-x-x-x-x-x--xxxxxxxx-|
A|-8-8-8-8-8-8-8-8-8-8-8-8-8-8-8-8--1212121212121212-77777777-|
D|------------------------------------------------------------|

E|-------------------------------------------------|
B|-------------------------------------------------|
G|-10101010101010101010101010101010-99-99-99-99-99-|
D|-x-x-x-x-x-x-x-x-x-x-x-x-x-x-x-x--xx-xx-xx-xx-xx-|
A|-8-8-8-8-8-8-8-8-8-8-8-8-8-8-8-8--77-77-77-77-77-|
D|-------------------------------------------------|

E|-------------------------------------------------|
B|-------------------------------------------------|
G|----1010101010---99999-----10-10-5h7p5-----5-3-2-|
D|-00-x-x-x-x-x-88-xxxxx-0---------------2-3-------|
A|-00-8-8-8-8-8-88-77777-0-------------------------|
D|-00-----------88-------0-0---0--0-----0----------|
pm                         *   *  *     *

E|----------------------------------------------|
B|----------------------------------------------|
G|----12121212----9999----10-10-5h7p5-----5-3-2-|
D|-88-x-x-x-x--88-xxxx-0--------------2-3-------|
A|-88-10101010-88-7777-0------------------------|
D|-88----------88------0-0--0--0-----0----------|
pm                       *  *  *     *

E|----------------------------------|
B|----------------------------------|
G|-----------12/14------------------|
D|-8-8--8----x-/x----0-0--1010-1010-|
A|-8-8--8-88-10/12---0-0--1010-1010-|
D|-8-8--8-88-------0-0-0--1010-1010-|
pm        **       *
[ Tab from: http://www.guitaretab.com/e/eyes-set-to-kill/111061.html ]
E|-----------------------------------------------|
B|-----------------------------------------------|
G|-----------12/14-------------------------------|
D|-8-8--8----x-/x--0-----------------10-10-8-7h8-|
A|-8-8--8-88-10/12-0---8---7h8p7-5h7-------------|
D|-8-8--8-88-------0-0---0-------------0--0-0----|
pm        **         *   *             *  * *

E|-------------------------------------------------------------------------------|
B|-------------------------------------------------------------------------------|
G|-------------------------------------------------------------------------------|
D|-8-----------------------------0-----------------10-10-8-7-88------1010----10~-|
A|-8---8---7h8p7-5h7-10-10-8-7h8-0---8---7h8p7-5h7-----------8888888-1010101010~-|
D|-8-8---0-------------0--0-0----0-0---0-------------0--0-0--8888888-1010101010~-|
^   *   *             *  * *      *   *             *  * *    *****     * *

E|----------------------------------------------------------|-----|
B|----------------------------------------------------------|     |
G|----------------------------------------------------------|     |
D|-----------------10-10-8-7h8--8---------------------------|     |
A|---8---7h8p7-5h7--------------8---8-7h8p7-5h7-10-10-8-7h8-|     |
D|-0---0-------------0--0-0-----8-8---------------0--0-0----|     |
pm *   *             *  * *       *				  |
								  |
E|-------------------------------------------------|              |
B|-------------------------------------------------|              |
G|-------------------------------------------------|              |
D|-----------------10-10-8-7--88-------1010----10~-|              |
A|---8---7h8p7-5h7------------88888888-1010101010~-|              |
D|-0---0-------------0--0-0---88888888-1010101010~-|--------------|
pm *   *             *  * *     ******     * *

E|------------------------------------------------------------|
B|------------------------------------------------------------|
G|-10101010101010101010101010101010-1414141414141414-99999999-|
D|-x-x-x-x-x-x-x-x-x-x-x-x-x-x-x-x--x-x-x-x-x-x-x-x--xxxxxxxx-|
A|-8-8-8-8-8-8-8-8-8-8-8-8-8-8-8-8--1212121212121212-77777777-|
D|------------------------------------------------------------|

E|------------------------------------------------------------|
B|------------------------------------------------------------|
G|-10101010101010101010101010101010-1414141717171717-99999999-|
D|-x-x-x-x-x-x-x-x-x-x-x-x-x-x-x-x--x-x-x-x-x-x-x-x--xxxxxxxx-|
A|-8-8-8-8-8-8-8-8-8-8-8-8-8-8-8-8--1212121515151515-77777777-|
D|------------------------------------------------------------|

E|------------------------------------------------------------|
B|------------------------------------------------------------|
G|-10101010101010101010101010101010-1414141414141414-99999999-|
D|-x-x-x-x-x-x-x-x-x-x-x-x-x-x-x-x--x-x-x-x-x-x-x-x--xxxxxxxx-|
A|-8-8-8-8-8-8-8-8-8-8-8-8-8-8-8-8--1212121212121212-77777777-|
D|------------------------------------------------------------|

E|---------------------------------------------------|
B|---------------------------------------------------|
G|-10101010101010101010101010101010-99-99-99-99-9999-|
D|-x-x-x-x-x-x-x-x-x-x-x-x-x-x-x-x--xx-xx-xx-xx-xxxx-|
A|-8-8-8-8-8-8-8-8-8-8-8-8-8-8-8-8--77-77-77-77-7777-|
D|---------------------------------------------------|

E|------------|
B|------------|
G|------------|
D|-0~-0~-8~-8-|
A|-0~-0~-8~-8-|
D|-0~-0~-8~-8-|

E|------------------|
B|------------------| x2
G|------------------|
D|------------------|
A|-00000000-000-000-|
D|-00000000-000-000-|
pm ******** *** ***

E|-----------------------------------|
B|-----------------------------------|
G|-----------------------------------|
D|-----------------------------------|
A|-88888888-888-888--88888888-877777-|
D|-88888888-888-888--88888888-877777-|
pm ******** *** ***  ******** ******


E|-----------------------------------|
B|-----------------------------------| x4
G|-----------------------------------|
D|-----------------------------------|
A|-8888888888888888-0000000033333333-|
D|-8888888888888888-0000000033333333-|
pm **************** ****************

E|-----------------------------------|
B|-----------------------------------| x4
G|-----------------------------------|
D|-8888888888888888-0000000033333333-|
A|-8888888888888888-0000000033333333-|
D|-8888888888888888-0000000033333333-|


E|---------------------------------------|
B|---------------------------------------|
G|---------------------------------------|
D|---------------------------------------|
A|-00000000-000-000--00000000-000-000-00-|
D|-00000000-000-000--00000000-000-000-00-|
pm ******** *** ***  ******** *** *** **
Related for Violent Kiss tab