Song name
# A B C D E F G H I J K L M N O P Q R S T U V W X Y Z

Eyes Set To Kill - Into The Night tab

Eyes Set To Kill - Into The Night
by: pearlyannechan @ www.myspace.com/arsoniste


Violent breathing
Keeps the oxygen kissing torn up lungs. 

Guitar 1 Ryhtm
e |------------------------------------------------|
B |------------------------------------------------|
G |------------------------------------------------|
D |--9-9-5-5-5-7-7---------------------------------|
A |--9-9-5-5-5-7-7---------------------------------|
D |--9-9-5-5-5-7-7---------------------------------|


Lead Guitars
e |------------------------------------------|
B |------------------------------------------|
G |----11-9--------------------7---6---------|
D |--9------11-12--9--11-11--5-7-7-6---------|
A |--9-------------9---------5-5-7-4---------|
D |--9-------------9---------5---7-----------|


So we sing into the night
And break all the silence. 

Guitar 1
e |--------------------------------|
B |--------------------------------|
G |--------------------------------|
D |-5-5--7-7--9-9------------------|
A |-5-5--7-7--9-9------------------|
D |-5-5--7-7--9-9------------------|




Feel your heart through my hands.
I feel your loneliness I'm reaching out to you. 

Guitar 1 Ryhtm
e |-----------------------------|
B |-----------------------------|
G |-----------------------------|
D |--9-9-5-5-5-7-7--------------|
A |--9-9-5-5-5-7-7--------------|
D |--9-9-5-5-5-7-7--------------|



Lead Guitars /Ryhtm juga 
e |----------------------------------------------------|
B |----------------------------------------------------|
G |----11-9-----------11-9--------12--11--9--6---------|
D |--9------11-12--9-------11-12--12--11--9--6---------|
A |--9-------------9--------------10--9---7--4---------|
D |--9-------------9-----------------------------------|

e |-----------------------------------------------------|
B |-----------------------------------------------------|
G |----11-9-----------11-9--------12--11--14--6---------|
D |--9------11-12--9-------11-12--12--11--14--6---------|
A |--9-------------9--------------10--9---12--4---------|
D |--9-------------9------------------------------------|


e |-----------------------------------|
B |-----------------------------------|
G |-----11-------9---9-----12---12----| around those tabs just play around
D |-9-9-----9-9---9---9-9----9--------|
A |-----------------------------------|
D |-----------------------------------|



So we sing into the night
And break all the silence. 

Guitar 1
e |--------------------------------|
B |--------------------------------|
G |--------------------------------|
D |-5-5--7-7--9-9------------------|
A |-5-5--7-7--9-9------------------|
D |-5-5--7-7--9-9------------------|



Bridge
slow down part... and brandon's part 
I'll do whatever it takes
Whatever it takes to break the silence 
Ryhtm
e |--------------------|
B |--------------------|
G |-11-10-7------------|
D |-9--8--5------------|
A |-9--8--5------------|
D |-9--8--5------------|


Lead
e |-------2-----------2---------2---------|
B |---3-----3-----3-----3---3-----3-------|
G |-4---4-------3---3-----0---0-----------|
D |---------------------------------------|
A |---------------------------------------|
D |---------------------------------------|


I'll do whatever it takes(brandon)
Whatever it takes to break the silence 
To break the silence~(alexia)
e |-----------------------------|
B |-----------------------------|
G |-----------------------------|
D |--5-5--7-7--5-5--7-7---------|
A |--5-5--7-7--5-5--7-7---------|
D |--5-5--7-7--5-5--7-7---------|


So we sing into the night
And break all the silence. 

Guitar 1
e |------------------------------------------------|
B |------------------------------------------------|
G |------------------------------------------------|
D |-5-5--7-7--9-9---------------------------------------|
A |-5-5--7-7--9-9---------------------------------------|
D |-5-5--7-7--9-9---------------------------------------|



outro

e |------------------------------------------------|
B |------------------------------------------------|
G |------------------------------------------------|
D |------------------------------------------------|
A |-----------------------------------------------|
D |-9-8-5---------------------------------------------|

e |-------2-----------2---------2------------------------|
B |---3-----3-----3-----3---3-----3----------------------|
G |-4---4-------3---3-----0---0--------------------------|
D |------------------------------------------------|
A |------------------------------------------------|
D |------------------------------------------------|

Tap to rate this tab
# A B C D E F G H I J K L M N O P Q R S T U V W X Y Z