Song name
# A B C D E F G H I J K L M N O P Q R S T U V W X Y Z

Eyes Set To Kill - Behind These Eyes tab

ESTK - BEHIND THESE EYES



tabbed by Pearlyannechan visit at www.youtube.com/pearlyannechan



1st Verse - Colour the dark past...

e |-------------------------------------------------------|
B |-------------------------------------------------------|
G |--------------------------------------9--10--6-7-------| 
D |------------------------------------8-9--10--6-7-------|        4X
A |-----12---8---10---5---7---10-10-10-8-7---8--4-5-------|
D |-0-0----0---0----0---0---0----------8------------------|


It's distance we need..........

e |-----------------------------------------------|
B |-----------------------------------------------|
G |-----------------------------------------------|      2xx
D |-8-8-8-------0-0-0-----------------------------|
A |-8-8-8-5-7-8-0-0-0--0-5-0-5--------------------|
D |-8-8-8-------0-0-0-----------------------------|




THese miles give me the time to think...........

e |-------------------------------------------------|
B |-------------------------------------------------|       
G |-------------------------------------------------|           2xx
D |--8-8--5-5---------------------------------------|
A |--8-8--5-5-----------5-----5---------------------|
D |--8-8--5-5---0-0-3-0---5-3---0-6-----------------|




Speak through my heart now that i've changed (PART A --> repeat later mentioned)

e |--------------------------------------------------|
B |--------------------------------------------------|
G |--------------------------------------------------|     3X
D |--5-5--8--8--0------------------------------------|
A |--5-5--8--8--0---------5-----5--------------------|
D |--5-5--8--8--0---0-3-0---5-3---0-6----------------|




Bring back night to day...

e |-------------------------------------------------------------------|
B |-------------------------------------------------------------------|
G |--10--10--9-9----------------6-------------------------------------|  4X
D |--10--10--9-9--8-8-----------6-------------------------------------|
A |--8---8---7-7--8-8-----------4-------------------------------------|
D |---------------8-8---5-8-5-8---------------------------------------|




It's distance we need....

e |----------------------------------------------------|
B |----------------------------------------------------|
G |----------------------------------------------------|
D |-8-5-0-------8-5-0---0-0-0--------------------------|
A |-8-5-0--3-5--8-5-0---0-0-0--------------------------|
D |-8-5-0-------8-5-0---0-0-0--------------------------|




These miles give me~

e |----------------------------------------------------------------------|
B |----------------------------------------------------------------------|
G |----------------------------------------------------------------------|
D |-----10-12-8----5-5-5--0-0-0------10-12-8----5-5-5--------------------|
A |---8---------12-5-5-5--0-0-0----8---------12-5-5-5-------5-----5------|
D |-8--------------5-5-5--0-0-0--8--------------5-5-5-0-3-0---5-3---0-6--|





Now that i hear my heart clearly (repeat PART A mentioned above)




Lead....

e |--------------------------------|
B |--------------------------------|
G |--------------------------------|
D |-0--0----8-8--0--0--------------|
A |-0--0----8-8--0--0--------------|
D |-0--0----8-8--0--0--------------|

after lead...

e |-------------------------------------------------|
B |-------------------------------------------------|
G |-------------------------------------------------|
D |--0----------------------0-----------------------|
A |--0--8-10-11--7-8-10-5~~-0-8-10-11--7-8-10-4~~---|
D |--0----------------------0-----------------------|


e |-------------------------------------------------|
B |-------------------------------------------------|
G |-------------------------------------------------|
D |--8----------------------8-----------------------|
A |--8--8-10-11--7-8-10-5~~-8-8-10-11--7-8-10-4~~---|
D |--8----------------------8-----------------------|




outro sweep lead part...

e |-------------------------------------------------|
B |-------------------------------------------------|
G |-------------------------------------------------|  3xxx
D |--5--7-----8-10-12-14-15-------------------------|
A |--5--7-----8-10-12-14-15-------------------------|
D |--5--7-----8-10-12-14-15-------------------------|

e |----------------------|
B |----------------------|
G |----------------------|
D |--8--10---------------|
A |--8--10---------------|
D |--8--10---------------|



scream ending....

e |------------------------------------------|
B |------------------------------------------|
G |------------------------------------------|      
D |------------------------------------------| 4XXX
A |-----------5-----5------------------------|
D |-----0-3-0---5-3---0-6--------------------|


p/s: 1st time tab here xD
Tap to rate this tab
 
# A B C D E F G H I J K L M N O P Q R S T U V W X Y Z