Song name
# A B C D E F G H I J K L M N O P Q R S T U V W X Y Z

Eyes Set To Kill - Darling tab

Help us improve GuitareTab! Take a short survey!
while i was looking for tabs i noticed that none of them had a good interpretation of 
solo so i thought i should give it a try.


Tuning:drop D DADGBe

e|---------------------------------------------------------------------------|
B|---15-17-15-18-15-15-20-15-17-15-15h17p15-15-------------------------------|
G|---------------------------------------------------------------------------|
D|---------------------------------------------------------------------------|
A|---------------------------------------------------------------------------|
D|---------------------------------------------------------------------------|
       "curse the blind you curse the blind"
e|---------------------------------------------------------------------------|
B|------15-17-18-18-17-15----------------------------------------------------|
G|---------------------------------------------------------------------------|
D|---------------------------------------------------------------------------|
A|---------------------------------------------------------------------------|
D|---------------------------------------------------------------------------|

e|---------------------------------------------------------------------------|
B|-----15-17-15-18-15-15-20-15-17-15-15h17p15-15-----------------------------|
G|---------------------------------------------------------------------------|
D|---------------------------------------------------------------------------|
A|---------------------------------------------------------------------------|
D|---------------------------------------------------------------------------|

e|---------------------------------------------------------------------------|
B|-------15-17-15-18-15-15-20-15-17-15-18p17p15-18p17p15---------------------|
G|---------------------------------------------------------------------------|
D|---------------------------------------------------------------------------|
A|---------------------------------------------------------------------------|
D|---------------------------------------------------------------------------|

this was my interpretation of the tab hope you liked it
Related for Darling tab