Song name
# A B C D E F G H I J K L M N O P Q R S T U V W X Y Z

Eyes Set To Kill - Where We Started tab

Eyes Set to Kill : Where we Started 
Tuning           : E B G D A D
Tabbed by        : Francis(f_sario@yahoo.com)
cp#              : 09283150081

Intro/Chorus1:
1.Organ " F#m D E D E 2x

GtrI & GtrII
|---------------------------------|-------------------------------------|
|---------------------------------|-------------------------------------|
|---------------------------------|-------------------------------------|
|---------------------------------|-44-44-00-00-22-22-0-----------------|
|---------------------------------|-44-44-00-00-22-22-0-000000-2222222--|
|---------------------------------|-44-44-00-00-22-22-0-000000-2222222--|
                                                        ****** *******

GtrI
|-----------------------------------------------------------------------|
|-----------------------------------------------------------------------|
|-----------------------------------------------------------------------|
|-4-4-4-4-4-4-4-4--0-0-0-0-0-0-0-0--2-2-2-2-2-2-2-2--0-0-0-0--2-2-2-2---|2x
|-4-4-4-4-4-4-4-4--0-0-0-0-0-0-0-0--2-2-2-2-2-2-2-2--0-0-0-0--2-2-2-2---|
|-4-4-4-4-4-4-4-4--0-0-0-0-0-0-0-0--2-2-2-2-2-2-2-2--0-0-0-0--2-2-2-2---|

GtrII
|-----------------------------------------------------------------------|
|-----------------------------------------------------------------------|
|-----------------------------------------------------------------------|
|-4-4-4-4-4-4-4-4--0-0-0-0-0-0-0-0--2-2-2-2-2-2-2-2--0-0-0-0--2-2-2-2---|
|-4-4-4-4-4-4-4-4--0-0-0-0-0-0-0-0--2-2-2-2-2-2-2-2--0-0-0-0--2-2-2-2---|
|-4-4-4-4-4-4-4-4--0-0-0-0-0-0-0-0--2-2-2-2-2-2-2-2--0-0-0-0--2-2-2-2---|

|------------------------------------------------|------------------------------|
|-------------------------17-14------------------|-------------------12---------|
|-13h14p13----------13h14------14-16h14-13-13h14-|-----11--13----14------9---11-|
|----------16-14h16------------------------------|-1212--12--1212--12--1212----|
|------------------------------------------------|------------------------------|
|------------------------------------------------|------------------------------|
                                        *          * *   *   * *   *   *  *

|------------------------------------------------|----------------------------------|
|-------------------------17-14------------------|-------------------12-------------|
|-13h14p13----------13h14------14-16h14-13-13h14-|-----11--13----14------13h14------|
|----------16-14h16------------------------------|-1212--12--121212--12-----14h16-|
|------------------------------------------------|----------------------------------|
|------------------------------------------------|----------------------------------|
                                        *          * *   *   * *   *   *   

Verse-

|---------------------------------|---------------------------------------|
|---------------------------------|------------------------14x14-14h15p14-|
|----------13h14----------13h14---|----------13h14p13---------------------|
|-00-14h16-------00-14h16---------|-44-14h16---------14h16----------------|3x
|-00-------------00---------------|-44------------------------------------|
|-00-------------00---------------|-44------------------------------------|

|---------------------------------|-------------------------------------|
|---------------------------------|-------------------------------------|
|----------13h14----------13h14---|-------------------------------------|
|-00-14h16-------00-14h16---------|-44-44-44-77777----------------------|
|-00-------------00---------------|-44-44-44-77777----------------------|
|-00-------------00---------------|-44-44-44-77777----------------------|


Chorus:
GtrI
|-----------------------------------------------------------------------|
|-----------------------------------------------------------------------|
|-----------------------------------------------------------------------|
|-4-4-4-4-4-4-4-4--0-0-0-0-0-0-0-0--2-2-2-2-2-2-2-2--0-0-0-0--2-2-2-2---|2x
|-4-4-4-4-4-4-4-4--0-0-0-0-0-0-0-0--2-2-2-2-2-2-2-2--0-0-0-0--2-2-2-2---|
|-4-4-4-4-4-4-4-4--0-0-0-0-0-0-0-0--2-2-2-2-2-2-2-2--0-0-0-0--2-2-2-2---|

GtrII
|-----------------------------------------------------------------------|
|-----------------------------------------------------------------------|
|-----------------------------------------------------------------------|
|-4-4-4-4-4-4-4-4--0-0-0-0-0-0-0-0--2-2-2-2-2-2-2-2--0-0-0-0--2-2-2-2---|
|-4-4-4-4-4-4-4-4--0-0-0-0-0-0-0-0--2-2-2-2-2-2-2-2--0-0-0-0--2-2-2-2---|
|-4-4-4-4-4-4-4-4--0-0-0-0-0-0-0-0--2-2-2-2-2-2-2-2--0-0-0-0--2-2-2-2---|

|------------------------------------------------|------------------------------|
|-------------------------17-14------------------|-------------------12---------|
|-13h14p13----------13h14------14-16h14-13-13h14-|-----11--13----14------9---11-|
|----------16-14h16------------------------------|-1212--12--1212--12--1212----|
|------------------------------------------------|------------------------------|
|------------------------------------------------|------------------------------|
                                        *          * *   *   * *   *   *  *

|------------------------------------------------|----------------------------------|
|-------------------------17-14------------------|-------------------12-------------|
|-13h14p13----------13h14------14-16h14-13-13h14-|-----11--13----14------13h14------|
|----------16-14h16------------------------------|-1212--12--121212--12-----14h16-|
|------------------------------------------------|----------------------------------|
|------------------------------------------------|----------------------------------|
                                        *          * *   *   * *   *   *   

Post scream part:
|---------------------------------|-------------------------------------|
|---------------------------------|-------------------------------------|
|-----------------------------9---|-11-11--13-13-13--14-14-14--16-16-16-|
|-0~----------------7h9p7p6h7-----|-------------------------------------|
|-0~--------------9---------------|-9--9---11-11-11--12-12-12--14-14-14-|
|-0~------------------------------|-------------------------------------|
                  *
now Scream!...lol
|------------------------------------------|-------------------------|
|------------------------------------------|-------------------------|
|-----4444-----6666--1111-1313-1414-161616-|-----4444-----6666-------|
|-4-x------4-x-----------------------------|-4-x------4-x------------|
|-4-x-2222-4-x-4444--9-9--1111-1212-141414-|-4-x-2222-4-x-4444-------|
|-4-x------4-x-----------------------------|-4-x------4-x------------|

|------------------------------------|-------------------------------------|
|------------------------------------|-------------------------------------|
|-----4444-----6666-----11111111-----|-----4444-----6666-------------------|
|-0-x------0-x------4-x----------4-x-|-0-x------0-x--------44-44-44-77777--|
|-0-x-2222-0-x-4444-4-x-9-9-9-9--4-x-|-0-x-2222-0-x-4444---44-44-44-77777--|
|-0-x------0-x------4-x----------4-x-|-0-x------0-x--------44-44-44-77777--|


DO Chorus-
Bridge-
|----------------------------------|------------------------------------|
|----------------------------------|------------------------------------|
|----------------------------------|------------------------------------|
|-0~-------------0~----------------|--4~-----------------4~-------------|2x
|-0~-------------0~----------------|--4~-----------------4~-------------|
|-0~-------------0~----------------|--4~-----------------4~-------------|

|----------------------------------|------------------------------------|
|-t9-10-9-7-5-7t10-7t12-7t10-7-5-7-|-t9-10-9-7-5-7t10-7t12-7t10-7-5-7---|
|----------------------------------|------------------------------------|
|----------------------------------|------------------------------------|4x
|----------------------------------|------------------------------------|
|----------------------------------|------------------------------------|

Scream partII
|---------------------------------|------------------------------------|
|---------------------------------|------------------------------------|
|---4----6----4-----4----6--------|---4---6---4---4---6----------------|
|-0----0----0-----0----0----0h2-2-|-4---4---4---4---4---4--22----------|
|-0-2--0-4--0-2---0-2--0-4--0h2-2-|-4-2-4-4-4-2-4-2-4-4-4--22----------|
|-0----0----0-----0----0----0h2-2-|-4---4---4---4---4---4--22----------|

|---------------------------------|------------------------------------|
|---------------------------------|------------------------------------|
|---4----6----4-----4----6--------|------------------------------------|
|-0----0----0-----0----0----0h2-2-|-4~---------------------------------|
|-0-2--0-4--0-2---0-2--0-4--0h2-2-|-4~---------------------------------|
|-0----0----0-----0----0----0h2-2-|-4~---------------------------------|

Chorus:
GtrI
|-0-0-0-0-0-0-0-0--0-0-0-0-0-0-0-0--0-0-0-0-0-0-0-0--0-0-0-0--0-0-0-0---|
|-0-0-0-0-0-0-0-0--0-0-0-0-0-0-0-0--0-0-0-0-0-0-0-0--0-0-0-0--0-0-0-0---|
|-x-x-x-x-x-x-x-x--7-7-7-7-7-7-7-7--x-x-x-x-x-x-x-x--x-x-x-x--x-x-x-x---|
|-7-7-7-7-7-7-7-7--7-7-7-7-7-7-7-7--6-6-6-6-6-6-6-6--7-7-7-7--6-6-6-6---|
|-9-9-9-9-9-9-9-9--5-5-5-5-5-5-5-5--7-7-7-7-7-7-7-7--5-5-5-5--7-7-7-7---|
|-----------------------------------------------------------------------|

|-0-0-0-0-0-0-0-0--0-0-0-0-0-0-0-0--0-0-0-0-0-0-0-0--------------------|
|-0-0-0-0-0-0-0-0--0-0-0-0-0-0-0-0--0-0-0-0-0-0-0-0--------------------|
|-x-x-x-x-x-x-x-x--7-7-7-7-7-7-7-7--x-x-x-x-x-x-x-x--------------------|
|-7-7-7-7-7-7-7-7--7-7-7-7-7-7-7-7--6-6-6-6-6-6-6-6--0-----------------|
|-9-9-9-9-9-9-9-9--5-5-5-5-5-5-5-5--7-7-7-7-7-7-7-7--0-000000-2222222--|
|----------------------------------------------------0-000000-2222222--|
                                                       ****** *******
Coda:

|------------------------------------------------------------------------|
|------------------------------------------------------------------------|
|------------------------------------------------------------------------|
|-4-4-4-4-4-4-4-4--7-7-7-7-7-7-7-7--2-2-2-2-2-2-2-2--0-0-0-0-0--2-2-2-2--|2x
|-4-4-4-4-4-4-4-4--7-7-7-7-7-7-7-7--2-2-2-2-2-2-2-2--0-0-0-0-0--2-2-2-2--|
|-4-4-4-4-4-4-4-4--7-7-7-7-7-7-7-7--2-2-2-2-2-2-2-2--0-0-0-0-0--2-2-2-2--|

|------------------------------------------------------------------------|
|------------------------------------------------------------------------|
|-1111-111111-111111-131313-141414-141414-141414-161616------------------|
|------------------------------------------------------------------------|
|-9-9--9-9-9--9-9-9--111111-121212-121212-121212-141414------------------|
|------------------------------------------------------------------------|

|------------------------------------------------------------------------|
|------------------------------------------------------------------------|
|-131313-131313-131313-111111-777-999-11111111-13131313------------------|
|------------------------------------------------------------------------|
|-111111-111111-111111-9-9-9--555-777-9-9-9-9--11111111------------------|
|------------------------------------------------------------------------|

|------------------------------------------------------------------------|
|------------------------------------------------------------------------|
|-1111-111111-111111-131313-141414-141414-141414-161616------------------|
|------------------------------------------------------------------------|
|-9-9--9-9-9--9-9-9--111111-121212-121212-121212-141414------------------|
|------------------------------------------------------------------------|

|------------------------------------------------------------------------|
|------------------------------------------------------------------------|
|-131313-131313-131313-141414-191919-181818-161616-13131313--------------|
|------------------------------------------------------------------------|
|-111111-111111-111111-121212-171717-161616-141414-11111111--------------|
|------------------------------------------------------------------------|

|------------------------------------------------------------------------|
|------------------------------------------------------------------------|
|-11~---------14~---------9~----------7~-----------9~---------11~--------|
|------------------------------------------------------------------------|
|-9~----------12~---------7~----------5~-----------7~---------9~---------|
|------------------------------------------------------------------------|
Tap to rate this tab
# A B C D E F G H I J K L M N O P Q R S T U V W X Y Z