Song name
# A B C D E F G H I J K L M N O P Q R S T U V W X Y Z

Eyes Set To Kill - Heights tab

Eyes set to kill- Heights
Tuning- Drop C
Tabber- Rebornmaster9 (blackened_death_666@yahoo.com)


Verse 1-both guitars
|---------------------------------|
|---------------------------------|
|---------------------------------| 2x
|-00----00-----8888--5555---------|
|-00----00-----8888--5555---------|
|-00----00-----8888--5555---------|
PM..    ..     ...   ... 

part 2 of verse-both guitars
|--------------------------------------------|
|--------------------------------------------|
|--------------------------------------------|
|--------------------------------------------|
|----8p0-7p0-5p0-------8p0-7p0-5p0----8888---|
|00----------------0------------------8888---|
 Palm mute whole Riff

|-----------|
|-----------|
|-----------|
|-8888—5555-|
|-8888—5555-|
|-8888—5555-|
PM Riff        

pre chorus
|-----------------------------------------|
|-----------------------------------------|
|-----------------------------------------|
|--888888888888888-5—-8888887000000-------|
|--888888888888888-5—-8888887000000-------|
|--888888888888888-5--8888887000000-------|
 PM                          ......
|---------------------------------------|
|---------------------------------------|
|---------------------------------------|
|--888888888888888-5--8888888877777777--|
|--888888888888888-5--8888888877777777--|
|--888888888888888-5--8888888877777777--|

Chorus-Guitar 1
|---------------------------------------------------|
|--------------------------(10s)--------------------|
|---------------------------------------------------|
|--00000000-33333333-1010101010101010-888888888-----| 2x
|--00000000-33333333-1010101010101010-888888888-----|
|--00000000-33333333-1010101010101010-888888888-----|

Guitar 2 plays some sort of lead

Second verse
|---------------------------------|
|---------------------------------|
|---------------------------------| 2x
|-00----00-----8888--5555---------|
|-00----00-----8888--5555---------|
|-00----00-----8888--5555---------|
PM..    ..     ...   ... 

|--------------------------------------------|
|--------------------------------------------|
|--------------------------------------------|
|--------------------------------------------|
|----8p0-7p0-5p0-------8p0-7p0-5p0----8888---|
|00----------------0------------------8888---|
 Palm mute whole Riff

|-----------|
|-----------|
|-----------|
|-8888—5555-|
|-8888—5555-|
|-8888—5555-|
PM riff       

Guitar 2 plays this whole second chorus
|----------------------------------------------------------|
|----------------------------------------------------------|
|----------------------------------------------------------|
|----------------------------------------------------------|
|12121212121212121212121212-131313131313131313131313131313-|
|----------------------------------------------------------|

Repeat pre chorus
Then chorus 

interlude- guitar 1
|----------------------|
|----------------------|
|--------------------7-|
|------------------6---|
|----------------------|
|-0000000000000-6p0----|
  ............. 



then....
|-------------------------------------------------------------|
|-------------------------------------------------------------|
|-77777777-1414141414141414-1717171717171717-1414141414141414-|
|-------------------------------------------------------------|
|-55555555-1212121212121212-1515151515151515-1212121212121212-|
|-------------------------------------------------------------|

Repeat pre chorus
Then chorus

Outro- guitar 1
|-------------------------------------|
|-------------------------------------|
|-------------------------------------|
|--00--------00--------00---------00--|
|--00--------00--------00---------00--|
|--00--------00--------00---------00--|

Guitar 2 plays the lead from the chorus
That’s it, please rate and comment
Tap to rate this tab
# A B C D E F G H I J K L M N O P Q R S T U V W X Y Z