Song name
# A B C D E F G H I J K L M N O P Q R S T U V W X Y Z

Eyes Set To Kill - Beauty Through Broken Glass tab

-------------------------------------------------------------------------------
			     Beauty Through The Broken Glass - Eyes Set to Kill
-------------------------------------------------------------------------------
I got the tabs from watching http://www.youtube.com/watch?v=8FWk4FIZGgE 
so take a look to see the strumming pattern :)

Tuning: Standard 

Intro
e|---2---2---2---0---0---3------------------------------------------------------|
B|---3---2---3---3---2---0------------------------------------------------------|
G|---4---4---2---2---2---0------------------------------------------------------|
D|---4---4---0---0---2---0------------------------------------------------------|
A|-----------------------2------------------------------------------------------|
E|-----------------------3------------------------------------------------------|

Verse
e|---2---2---0---3--------------------------------------------------------------|
B|---3---3---2---0--------------------------------------------------------------|
G|---4---2---2---0--------------------------------------------------------------|
D|---4---0---2---0--------------------------------------------------------------|
A|---------------2--------------------------------------------------------------|
E|---------------3--------------------------------------------------------------|

First Chorus
e|---3---0---2---0-----|          |---3--0------3---0---------------------------|
B|---0---2---3---2-----|          |---0--2------0---3---------------------------|
G|---0---2---4---3-----| End with |---0--2------0---0---------------------------|
D|---0---2---4---4-----|          |---0--0------0---3---------------------------|
A|---2-----------------|          |---2---------2---3---------------------------|
E|---3-----------------|          |---3---------3-------------------------------|

Riff
e|---------------2-----------------------------------2--------------------------|
B|-----------3---3------2h3p2-----2--------------3---3-------2--------------2---|
G|-------4-----------4--------4-------------2-------------------2-------2-------|
D|---4---------------------------------0-----------------0----------0-----------|
A|------------------------------------------------------------------------------|
E|------------------------------------------------------------------------------|

e|--------------------------------------------------------3-------3-------------|
B|---------------2-------2---------------2------------0---0-------0-------------|
G|-----------2---2-----------2-------2------------0-----------0-----------------|
D|-------2-----------2-----------2----------------------------------------------|
A|---0--------------------------------------------------------------------------|
E|--------------------------------------------3---------------------------------|

Repeat Verse

Second Chorus
e|---3---0---2---0-----|          |---3---0-------------------------------------|
B|---0---2---3---2-----|          |---0---3-------------------------------------|
G|---0---2---4---3-----| End with |---0---0-------------------------------------|
D|---0---2---4---4-----|          |---0---3-------------------------------------|
A|---2-----------------|          |---2---3-------------------------------------|
E|---3-----------------|          |---3-----------------------------------------|

Bridge
e|---3---5---7---2-----|          |---3-----------------------------------------|
B|---3---5---7---2-----|          |---3-----------------------------------------|
G|---3---5---7---2-----| End with |---3-----------------------------------------|
D|---5---7---9---4-----|          |---5-----------------------------------------|
A|---5---7---9---4-----|          |---5-----------------------------------------|
E|---3---5---7---2-----|          |---3-----------------------------------------|

Ending Riff
e|---------------2--------------------2-----------------------------------------|
B|-----------3---3-------2h3p2--------2---------------2-------2---------------2-|
G|-------4-----------4------------4---------------2---2-----------2-------2-----|
D|---4----------------------------------------2-----------2-----------2---------|
A|----------------------------------------0-------------------------------------|
E|------------------------------------------------------------------------------|

e|---------------3--------------------------------------------------------------|
B|-----------0---0-------0---------------0--------------------------------------|
G|-------0-------------------0-------0-------0----------------------------------|
D|-------------------0-----------0----------------------------------------------|
A|------------------------------------------------------------------------------|
E|---3--------------------------------------------------------------------------|

e|---------------3-----------------------3--------------------------------------|
B|-----------0---0-------0-------------------0----------------------------------|
G|-------0-------------------0-------0------------------------------------------|
D|-------------------0-----------0----------------------------------------------|
A|------------------------------------------------------------------------------|
E|---3--------------------------------------------------------------------------|


************************************

| h   hammer-on
| p   pull-off

************************************
Tap to rate this tab
# A B C D E F G H I J K L M N O P Q R S T U V W X Y Z