Song name
# A B C D E F G H I J K L M N O P Q R S T U V W X Y Z

Eyes Set To Kill - A Sketch In Black And White tab

Artist: Eyes Set To Kill
Song: A Sketch In Black And White
Album: Reach

ok, i looked at some other tabs on here for this song, and couldnt really find one that
that great :/ *no offense to anyone this offends* so i tried hearing it out on my own,
this is what i got :) i couldnt get the solo, i got bored and lazy:P sorry, once i get 
i will repost this and put it in there, yes i will be putting up a better tab soon. this
completely accurate, but i hope it helps you!:) for questions or comments, contact me:
yahoo: shawtygurl44@yahoo.com
myspace: annaanimosity@myspace.com or URL http://www.myspace.com/annaanimosity

Tuning: Drop D

PM=palm mute             v = bend down
s = slide                h = hammer on
^ = bend up              p = pull off

PART I
e|----------------------------------------|
b|----------------------------------------|
g|-------------------------------10-8-7-5-|
d|---0-00-000-8-88-888-5-55-555---x-x-x-x-|
a|---0-00-000-8-88-888-5-55-555---8-6-5-3-|
D|---0-00-000-8-88-888-5-55-555-----------|
PM:

e|-----------------------------------------|
b|-----------------------------------------|
g|-------------------------------7-8-10-12-|
d|---0-00-000-8-88-888-5-55-555--x-x--x--x-|
a|---0-00-000-8-88-888-5-55-555--5-6--8-10-|
D|---0-00-000-8-88-888-5-55-555------------|
PM:

e|---------------------------------------|
b|---------------------------------------|
g|---------------------------------------|
d|---0-00-000-8-88-888-5-55-555--8-7-5-3-|
a|---0-00-000-8-88-888-5-55-555--8-7-5-3-|
D|---0-00-000-8-88-888-5-55-555--8-7-5-3-|
PM:                              . . . .

e|------------------------------------------|
b|------------------------------------------|
g|------------------------------------------|
d|---0-00-000-8-88-888-5-55-555--1-1-1-1-0~-|
a|---0-00-000-8-88-888-5-55-555--1-1-1-1-0~-|
D|---0-00-000-8-88-888-5-55-555--1-1-1-1-0~-|
PM:

PART II
  guitar 1
e|-|------------------------------------------------|
b|-|------------------------------------------------|
g|-|1010-101010-101010-101010-101010-101010-999-999-|
d|-|-x-x--x-x-x--x-x-x--x-x-x--x-x-x--x-x-x-xxx-xxx-|
a|-|-8-8--8-8-8--8-8-8--8-8-8--8-8-8--8-8-8-777-777-|
D|-|------------------------------------------------|
 |guitar 2                                        |play x4
e|-|------------------------------------------------|
b|-|------------------------------------------------|
g|-|------------------------------------------------|
d|-|0~-------------------------8~-----------7~------|
a|-|0~-------------------------8~-----------7~------|
D|-|0~-------------------------8~-----------7~------|
PM: .                          .            .

PART III
e|-|-------------------------------------------------|
b|-|-------------------------------------------------|
g|-|----141414-----121212-----12-10-9-10h12-10-9-7---|
d|-|0-0--x-x-x-0-0--x-x-x-8-8------------------------|
a|-|0-0-121212-0-0-101010-8-8------------------------|
D|-|0-0--------0-0--------8-8------------------------|
PM: . .        . .        . .

e|-|-------------------------------------------------|
b|-|-------------------------------------------------|
g|-|----141414-----151515-----12-10-9-10h12-10-9-7---|
d|-|0-0--x-x-x-0-0--x-x-x-8-8------------------------|
a|-|0-0-121212-0-0-131313-8-8------------------------|
D|-|0-0--------0-0--------8-8------------------------|
PM: . .        . .        . .

PART IV
e|----------------------------------|
b|----------------------------------|
g|---55-55-1212-1010-99-99-77-1212--|
d|---xx-xx--x-x--x-x-xx-xx-xx--x-x--|
a|---33-33-1010--8-8-77-77-55-1010--|
D|----------------------------------|
PM:

e|-----------------------------------------|
b|-----------------------------------------|
g|-------1010-99-----1010-99---------------|
d|---0-0--x-x-xx-0-0--x-x-xx-88-888-55-9-3-|
a|---0-0--8-8-77-0-0--8-8-77-88-888-55-9-3-|
D|---0-0---------0-0---------88-888-55-9-3-|
PM:  . .         . .

e|------------------------------------------|
b|------------------------------------------|
g|-------1010-99-----1010-99----------------|
d|---0-0--x-x-xx-0-0--x-x-xx-88-888-8-7-5-3-|
a|---0-0--8-8-77-0-0--8-8-77-88-888-8-7-5-3-|
D|---0-0---------0-0---------88-888-8-7-5-3-|
PM:  . .         . .                . . . .

PART V ~ solo-ish part

Rhythm
e|-|----------------------------|
b|-|----------------------------|
g|-|----------------------------|play until lead stops
d|-|0~------8~------5~--7~--7-7-|
a|-|0~------8~------5~--7~--7-7-|
D|-|0~------8~------5~--7~--7-7-|
PM:

interlude
e|-|------------------------|
b|-|------------------------|
g|-|------------------------|play x2
d|-|0~------8~--7~----------|
a|-|0~------8~--7~----------|
D|-|0~------8~--7~----------|
PM:

and thats all! here is the order to play in:
PART I
PART II
PART I
PART III
PART IV
PART I
PART V
PART II
PART I
PART I & II at same time


                                      thank you:)
                                            <3
                                    ~Anna Animosty~
                                       AKA Tiana
Tap to rate this tab
# A B C D E F G H I J K L M N O P Q R S T U V W X Y Z