Song name
# A B C D E F G H I J K L M N O P Q R S T U V W X Y Z

Eyes Set To Kill - A Sketch In Black And White tab

artist: Eyes Set To Kill
song: A Sketch In Black And White
album: Reach

so my last tab wasnt all that accurate, here it is again but i made a couple 
changes to it. hope you like it!
myspace: http://www.myspace.com/annaanimosity


PART I
e|----------------------------------------|
b|----------------------------------------|
g|-------------------------------10-9-7-6-|
d|---0-00-000-8-88-888-5-55-555---x-x-x-x-|
a|---0-00-000-8-88-888-5-55-555---8-7-5-4-|
D|---0-00-000-8-88-888-5-55-555-----------|
PM:

e|-----------------------------------------|
b|-----------------------------------------|
g|-------------------------------7-9-10-12-|
d|---0-00-000-8-88-888-5-55-555--x-x--x--x-|
a|---0-00-000-8-88-888-5-55-555--5-7--8-10-|
D|---0-00-000-8-88-888-5-55-555------------|
PM:

e|---------------------------------------|
b|---------------------------------------|
g|---------------------------------------|
d|---0-00-000-8-88-888-5-55-555--8-7-5-3-|
a|---0-00-000-8-88-888-5-55-555--8-7-5-3-|
D|---0-00-000-8-88-888-5-55-555--8-7-5-3-|
PM:                              . . . .

e|------------------------------------------|
b|------------------------------------------|
g|------------------------------------------|
d|---0-00-000-8-88-888-5-55-555--1-1-1-1-0~-|
a|---0-00-000-8-88-888-5-55-555--1-1-1-1-0~-|
D|---0-00-000-8-88-888-5-55-555--1-1-1-1-0~-|
PM:

PART II
  guitar 1
e|-|------------------------------------------------------|
b|-|--------------------------111111-111111-101010-101010-|
g|-|1010-101010-101010-101010-101010-101010--9-9-9--9-9-9-|
d|-|-x-x--x-x-x--x-x-x--x-x-x--x-x-x--x-x-x--x-x-x--x-x-x-|
a|-|-8-8--8-8-8--8-8-8--8-8-8--8-8-8--8-8-8--7-7-7--7-7-7-|
D|-|------------------------------------------------------|
 |guitar 2                                                |play x4
e|-|------------------------------------------------------|
b|-|------------------------------------------------------|
g|-|------------------------------------------------------|
d|-|0~-------------------------8~------------7~-----------|
a|-|0~-------------------------8~------------7~-----------|
D|-|0~-------------------------8~------------7~-----------|
PM: .                          .            .

PART III
e|-|-------------------------------------------------|
b|-|-------------------------------------------------|
g|-|----141414-----121212-----12-10-9-10h12-10-9-7---|
d|-|0-0--x-x-x-0-0--x-x-x-8-8------------------------|
a|-|0-0-121212-0-0-101010-8-8------------------------|
D|-|0-0--------0-0--------8-8------------------------|
PM: . .        . .        . .

e|-|-------------------------------------------------|
b|-|-------------------------------------------------|
g|-|----141414-----151515-----12-10-9-10h12-10-9-7---|
d|-|0-0--x-x-x-0-0--x-x-x-8-8------------------------|
a|-|0-0-121212-0-0-131313-8-8------------------------|
D|-|0-0--------0-0--------8-8------------------------|
PM: . .        . .        . .

PART IV
e|--------------------------------------|
b|--------------------------------------|
g|---77-77-1414-1212-1010-1010-99-1212--|
d|---xx-xx--x-x--x-x--x-x--x-x-xx--x-x--|
a|---55-55-1212-1010--8-8--7-7-77-1010--|
D|--------------------------------------|
PM:

e|-----------------------------------------|
b|-----------------------------------------|
g|-------1010-99-----1010-99---------------|
d|---0-0--x-x-xx-0-0--x-x-xx-88-888-55-9-3-|
a|---0-0--8-8-77-0-0--8-8-77-88-888-55-9-3-|
D|---0-0---------0-0---------88-888-55-9-3-|
PM:  . .         . .

e|------------------------------------------|
b|------------------------------------------|
g|-------1010-99-----1010-99----------------|
d|---0-0--x-x-xx-0-0--x-x-xx-88-888-8-7-5-3-|
a|---0-0--8-8-77-0-0--8-8-77-88-888-8-7-5-3-|
D|---0-0---------0-0---------88-888-8-7-5-3-|
PM:  . .         . .                . . . .

PART V ~ solo-ish part

Rhythm
e|-|----------------------------|
b|-|----------------------------|
g|-|----------------------------|play until lead stops
d|-|0~------8~------5~--7~--7-7-|
a|-|0~------8~------5~--7~--7-7-|
D|-|0~------8~------5~--7~--7-7-|
PM:

interlude
e|-|------------------------|
b|-|------------------------|
g|-|------------------------|play x2
d|-|0~------8~--7~----------|
a|-|0~------8~--7~----------|
D|-|0~------8~--7~----------|
PM:

and thats all! here is the order to play in:
PART I
PART II
PART I
PART III
PART IV
PART I
PART V
PART II
PART I
PART I & II at same time
Tap to rate this tab
# A B C D E F G H I J K L M N O P Q R S T U V W X Y Z