Song name
# A B C D E F G H I J K L M N O P Q R S T U V W X Y Z

Eyes Set To Kill - Ticking Bombs tab

Mabuhay ang mga PINOY!

Song - Ticking Bombs
Artist - Eyes Set To Kill
Album - Broken Frames
Year - 2010

READ IT FIRST!!!

This tab is done by ear. Its maybe 90% to 100%+ correct.

Tuning : Drop C (CGCFAD)

Legend:
"G1" - Guitar 1
"G2" - Guitar 2
"x"  - Dead string
"h"  - Hammer on
"p"  - Pull-off
"v"  - vibrato
"/"  - Slide up
"\"  - Slide down


Here's the tab. Enjoy! GOD bless!

INTRO
(0:00 - 0:08)
D|-----0---0---0---0---0---0---0---0|
A|----1---1---1---1---1---1---1---1-|
F|---2---2---2---2---2---2---2---2--|
C|------------------3---3---0---0---|
G|--0---0---0---0-------------------|
C|----------------------------------|

============================================================================================

VERSE
(0:08 - 0:39)
D|-----0---0---0---0---0---0---0---0---0---0---0---0---0---0---0---0|
A|----1---1---1---1---1---1---1---1---1---1---1---1---1---1---1---1-|
F|---2---2---2---2---2---2---2---2---2---2---2---2---2---2---2---2--|
C|------------------3---3---3---3---0---0---0---0-------------------|
G|--0---0---0---0-----------------------------------0---0---0---0---|
C|------------------------------------------------------------------| (x2)

============================================================================================

CHORUS I
(0:39 - 0:54)
D|-----------------------------------------------|
A|-----------------------------------------------|
F|---0-5p4\2-2-0-5p4\2-----0-5p4\2-----0-5p2\2---|
C|--3-------5-0-------5p2---------5p2---------5p2|
G|------------------------0-----------0----------|
C|-----------------------------------------------|

continuation.
D|-------------------------------------------------|
A|-------------------------------------------------|
F|---0-5p4\2-----0-5p4\2-----0-5p4\2-----0-5p2\2---|
C|--3-------5p2-0-------5p2---------5p2---------5p2|
G|--------------------------0-----------0----------|
C|-------------------------------------------------|

(0:54 - 1:09)
D|--------|---------0---0---0---0|
A|--------|--------1---1---1---1-|
F|--10-7--|-10-7--2---2---2---2--|
C|--x--x-7|-x--x-----------------|
G|--8--5-x|-8--5-0---0---0---0---|
C|-------7|----------------------|

============================================================================================

VERSE II
G1(1:09 - 1:40)
D|-----0---0---0---0---0---0---0---0---0---0---0---0---0---0---0---0|
A|----1---1---1---1---1---1---1---1---1---1---1---1---1---1---1---1-|
F|---2---2---2---2---2---2---2---2---2---2---2---2---2---2---2---2--|
C|------------------3---3---3---3---0---0---0---0-------------------|
G|--0---0---0---0-----------------------------------0---0---0---0---|
C|------------------------------------------------------------------| (x2)

G2(1:25 - 1:40) *DELAY
D|--8*-8*-10*-7*------------------------|
A|-------------10*(x2)--1010101010101010|
F|--------------------------------------|
C|--------------------------------------|
G|--------------------------------------|
C|--------------------------------------|

G1(1:40 - 1:52)
D|-----0---0---0---0---0---0---0---0|----0---0---0---0|
A|----1---1---1---1---1---1---1---1-|---1---1---1---1-|
F|---2---2---2---2---2---2---2---2--|--2---2---2---2--|
C|--3---3---0---0-------------------|-3---3---0---0---|
G|------------------0---0---0---0---|-----------------|
C|----------------------------------|-----------------|

G2(1:40 - 1:52)
D|-------------------------------------------------------------------|
A|--8-10-8-10-10-12-10-12-12-13-12-13-13-15-13-15-8-10-8-10-8-10-8-10|
F|-------------------------------------------------------------------|
C|-------------------------------------------------------------------|
G|-------------------------------------------------------------------|
C|-------------------------------------------------------------------|

continuation.
|-------------------------|---------------------------------------------|
|--8-10-------------------|8-10-8-10-10-12-10-12-12-13-12-13-12-13-12-13|
|------7-9-7-9-7-9-7-9-7-9|---------------------------------------------|
|-------------------------|---------------------------------------------|
|-------------------------|---------------------------------------------|
|-------------------------|---------------------------------------------|


============================================================================================

CHORUS II
(1:52 - 2:07)
D|----------------------------------------------------------|
A|----------------------------------------------------------|
F|----------------------------------------------------------|
C|--3333333-0000000-7777777-5555555-------------------------|
G|--3333333-0000000-7777777-5555555-------------------------|
C|--3333333-0000000-7777777-5555555-figure out the strumming| (x2)


============================================================================================

BRIDGE/SOLO
G1(2:07 - 2:38)
D|-----------------------------|
A|-----------------------------|
F|-----------------------------|
C|--77777777-33333333-000000000|
G|--77777777-33333333-000000000|
C|--77777777-33333333-000000000| (x4)

G2(2:07 - 2:38)
D|-----------------------------------------------------------------|
A|--101010-121212-13131313-101010-121212-1313----------------------|
F|-------------------------------------------10101010101010-9999999|
C|-----------------------------------------------------------------|
G|-----------------------------------------------------------------|
C|-----------------------------------------------------------------|

continuation.
|-----------------------------------------------------------------|
|--101010-121212-13131313-101010-121212-1313----------------------|
|-------------------------------------------10101010101010-9999999|
|-----------------------------------------------------------------|
|-----------------------------------------------------------------|
|-----------------------------------------------------------------|

|-----------------------8-10-12h17p12-----15h17p15--------------15171517|
|--8-10-8-----------8-10-------------15/17--------17-15\13-15/17--------|
|--------10-9-7-9-10----------------------------------------------------|
|-----------------------------------------------------------------------|
|-----------------------------------------------------------------------|
|-----------------------------------------------------------------------|

|-----------------------8-10-12h17p12------15--17---1517-1519-1520v|
|--8-10-8-----------8-10-------------15/17---17--17v---------------|
|--------10-9-7-9-10-----------------------------------------------|
|------------------------------------------------------------------|
|------------------------------------------------------------------|
|------------------------------------------------------------------|



============================================================================================

CHORUS III
(2:38 - 3:12)
D|----------------------------------------------------------|
A|----------------------------------------------------------|
F|----------------------------------------------------------|
C|--3333333-0000000-7777777-5555555-------------------------|
G|--3333333-0000000-7777777-5555555-------------------------|
C|--3333333-0000000-7777777-5555555-figure out the strumming| (x4)

continuation. (Last part)
|-------0---0---0---0|
|------1---1---1---1-|
|-----2---2---2---2--|
|----3---3---0---0---|
|--------------------|
|--------------------|

============================================================================================

OUTRO
(3:12 - 3:34)
D|-----0---0---0---0------0---0---0---0---0---0---0---0-0|
A|----1---1---1---1------1---1---1---1---1---1---1---1--1|
F|---2---2---2---2------2---2---2---2---2---2---2---2---2|
C|---------------------3---3---3---3---0---0---0---0----2|
G|--0---0---0---0-(x2)----------------------------------0|
C|-------------------------------------------------------|

Thanks for dropping by!
GOD bless!
-tim.
Tap to rate this tab
# A B C D E F G H I J K L M N O P Q R S T U V W X Y Z