Song name
# A B C D E F G H I J K L M N O P Q R S T U V W X Y Z

Eyes Set To Kill - Ticking Bombs tab

Ticking Bombs Solo (Tabbed by me) 
It seems very accurate so enjoy!

D|--------------------------------------------------------------------|
A|--101010-121212-13131313/101010-121212/1313-------------------------|
F|-------------------------------------------1010101010101010-99999999| (x2)
C|------------------------------------------------(Ten's)-------------|
G|--------------------------------------------------------------------|
C|--------------------------------------------------------------------|


|---------------------8-10-12p0h12------15h17-12-17p0-------17-0-17-0-----|
|-8-10-8----------8-10-------------15/17---------------17/15--------------|
|-------10-9--9-10--------------------------------------------------------|
|-------------------------------------------------------------------------|
|-------------------------------------------------------------------------|
|-------------------------------------------------------------------------|

|-----------------------8-10-12p0h12-------17-0-17-0--12-19p0--12-20p0h20--|
|--8-10-8-----------8-10-------------15/17---------------------------------|
|--------10-9--9-10--------------------------------------------------------|
|--------------------------------------------------------------------------|
|--------------------------------------------------------------------------|
|--------------------------------------------------------------------------|
Tap to rate this tab
 
# A B C D E F G H I J K L M N O P Q R S T U V W X Y Z