Song name
# A B C D E F G H I J K L M N O P Q R S T U V W X Y Z

Eyes Set To Kill - Violent Kiss tab

Violent Kiss Solo

e|-17h18p17h18-15--20--15--15--13--13--------------------------------------------|
B|-----------------------13--13--13--13-15----------17----------18--18--17--17---|
G|-------------------17--------------------------12----------15--17---17--17--17-|
D|-----------------------------------------12-15-------14-17---------------------|
A|-------------------------------------------------------------------------------|
D|-------------------------------------------------------------------------------|

|-17h18p17h18-15--20--15--15--13--13--------------------------------------------|
|-----------------------13--13--13--13-15----------17----------18--18--17~------|
|-------------------17--------------------------12----------15--17---17---------|
|-----------------------------------------12-15-------14-17---------------------|
|-------------------------------------------------------------------------------|
|-------------------------------------------------------------------------------|

|-17h18p17h18-15--20--15--15--13--13--------------------------------------------|
|-----------------------13--13--13--13-15----------17----------18--18--17--17---|
|-------------------17--------------------------12----------15--17---17--17--17-|
|-----------------------------------------12-15-------14-17---------------------|
|-------------------------------------------------------------------------------|
|-------------------------------------------------------------------------------|

|-17h18p17h18-15--20--15--15--13--13--------------------------------------------|
|-----------------------13--13--13--13-15----------17----------18~--------------|
|-------------------17--------------------------12----------15------------------|
|-----------------------------------------12-15-------14-17---------------------|
|-------------------------------------------------------------------------------|
|-------------------------------------------------------------------------------|
Tap to rate this tab
 
# A B C D E F G H I J K L M N O P Q R S T U V W X Y Z