Song name
# A B C D E F G H I J K L M N O P Q R S T U V W X Y Z

Eyes Set To Kill - Behind These Eyes tab

Behind These Eyes - Eyes Set to Kill

Solo

Part A
e|-13-10-------------13-10-------------15-12-------------15-12--------------|
B|-------11----------------11----------------13----------------13-----------|
G|----------------10----------------10----------------12----------------12--|
D|-------------12----------------12----------------14----------------14-----|
A|----------13----------------13----------------15----------------15--------|
D|--------------------------------------------------------------------------|

|-17-13-------------17-13-------------17-13-------------17-13---------------|
|-------15----------------15----------------15----------------15------------|
|----------------14----------------14----------------14----------------14---|
|-------------16----------------16----------------16----------------16------|
|----------17----------------17----------------17----------------17---------|
|---------------------------------------------------------------------------|


Part B (a little slower)
e|-13-10-------------13-10-------------15-12-------------17b----------------|
B|-------11----------------11----------------13-----------------------------|
G|----------------10----------------10----------------12--------------------|
D|-------------12----------------12----------------14-----------------------|
A|----------13----------------13----------------15--------------------------|
D|--------------------------------------------------------------------------|

Part A - 3x
Part B - 1x
Tap to rate this tab
# A B C D E F G H I J K L M N O P Q R S T U V W X Y Z